  0
SECTION
  2
HEADER
  0
ENDSEC
  0
SECTION
  2
TABLES
  0
TABLE
  2
LTYPE
 70
1
  0
LTYPE
  2
CONTINUOUS
 70
0
  3
Solid line
 72
65
 73
0
 40
0.0
  0
ENDTAB
  0
TABLE
  2
LAYER
 70
5
  0
LAYER
  2
Title
 70
0
 62
1
  6
CONTINUOUS
  0
LAYER
  2
ADA_Sink_End
 70
0
 62
1
  6
CONTINUOUS
  0
LAYER
  2
ADA_Sink_3D
 70
0
 62
1
  6
CONTINUOUS
  0
LAYER
  2
ADA_Sink_3D
 70
0
 62
1
  6
CONTINUOUS
  0
LAYER
  2
ADA_Sink_Front
 70
0
 62
1
  6
CONTINUOUS
  0
ENDTAB
  0
ENDSEC
  0
SECTION
  2
BLOCKS
  0
ENDSEC
  0
SECTION
  2
ENTITIES
  0
LINE
  8
ADA_Sink_End
 10
-22.469519
 20
51.335977
 11
-22.489520
 21
51.335977
 39
0.006944
 62
1
  0
LINE
  8
ADA_Sink_End
 10
-22.469519
 20
51.335977
 11
-22.489520
 21
51.335977
 39
0.006944
 62
1
  0
LINE
  8
ADA_Sink_End
 10
-22.489520
 20
51.335977
 11
-22.614520
 21
51.335977
 39
0.006944
 62
1
  0
LINE
  8
ADA_Sink_End
 10
-22.469519
 20
51.335977
 11
-22.489520
 21
51.335977
 39
0.006944
 62
1
  0
LINE
  8
ADA_Sink_End
 10
-22.469519
 20
51.335977
 11
-22.489520
 21
51.335977
 39
0.006944
 62
1
  0
LINE
  8
ADA_Sink_End
 10
-22.469519
 20
51.335977
 11
-22.489520
 21
51.335977
 39
0.006944
 62
1
  0
LINE
  8
ADA_Sink_End
 10
-23.374518
 20
51.085977
 11
-23.374518
 21
50.965978
 39
0.006944
 62
1
  0
LINE
  8
ADA_Sink_End
 10
-22.614520
 20
51.085977
 11
-23.374518
 21
51.085977
 39
0.006944
 62
1
  0
LINE
  8
ADA_Sink_End
 10
-23.374518
 20
51.085977
 11
-23.374518
 21
50.965978
 39
0.006944
 62
1
  0
LINE
  8
ADA_Sink_End
 10
-22.614520
 20
51.085977
 11
-23.374518
 21
51.085977
 39
0.006944
 62
1
  0
LINE
  8
ADA_Sink_End
 10
-22.614520
 20
51.085977
 11
-23.374518
 21
51.085977
 39
0.006944
 62
1
  0
LINE
  8
ADA_Sink_End
 10
-23.374518
 20
50.965978
 11
-23.374518
 21
50.965978
 39
0.006944
 62
1
  0
LINE
  8
ADA_Sink_End
 10
-23.374518
 20
50.965978
 11
-23.374518
 21
50.965978
 39
0.006944
 62
1
  0
LINE
  8
ADA_Sink_End
 10
-22.614520
 20
51.335977
 11
-22.614520
 21
51.085977
 39
0.006944
 62
1
  0
LINE
  8
ADA_Sink_End
 10
-21.729520
 20
51.335977
 11
-22.469519
 21
51.335977
 39
0.006944
 62
1
  0
LINE
  8
ADA_Sink_End
 10
-21.729520
 20
51.335977
 11
-22.469519
 21
51.335977
 39
0.006944
 62
1
  0
LINE
  8
ADA_Sink_End
 10
-21.729520
 20
51.335977
 11
-22.469519
 21
51.335977
 39
0.006944
 62
1
  0
LINE
  8
ADA_Sink_End
 10
-21.729520
 20
51.335977
 11
-22.469519
 21
51.335977
 39
0.006944
 62
1
  0
LINE
  8
ADA_Sink_End
 10
-0.124522
 20
51.335977
 11
-21.729520
 21
51.335977
 39
0.006944
 62
1
  0
LINE
  8
ADA_Sink_End
 10
-22.489520
 20
51.335977
 11
-22.489520
 21
47.849977
 39
0.006944
 62
1
  0
LINE
  8
ADA_Sink_End
 10
-22.489520
 20
47.849977
 11
-22.489520
 21
51.335977
 39
0.006944
 62
1
  0
LINE
  8
ADA_Sink_End
 10
-22.489520
 20
51.335977
 11
-22.489520
 21
47.849977
 39
0.006944
 62
1
  0
LINE
  8
ADA_Sink_End
 10
-22.469519
 20
47.845506
 11
-22.469519
 21
51.335977
 39
0.006944
 62
1
  0
LINE
  8
ADA_Sink_End
 10
-22.489520
 20
51.335977
 11
-22.489520
 21
47.829977
 39
0.006944
 62
1
  0
LINE
  8
ADA_Sink_End
 10
-22.469519
 20
51.335977
 11
-22.469519
 21
47.845506
 39
0.006944
 62
1
  0
LINE
  8
ADA_Sink_End
 10
-23.374518
 20
50.965978
 11
-23.374518
 21
47.949978
 39
0.006944
 62
1
  0
LINE
  8
ADA_Sink_End
 10
-23.374518
 20
51.085977
 11
-23.374518
 21
47.829977
 39
0.006944
 62
1
  0
LINE
  8
ADA_Sink_End
 10
-23.374518
 20
50.965978
 11
-23.374518
 21
47.949978
 39
0.006944
 62
1
  0
LINE
  8
ADA_Sink_End
 10
-23.374518
 20
50.965978
 11
-23.374518
 21
47.949978
 39
0.006944
 62
1
  0
LINE
  8
ADA_Sink_End
 10
-23.374518
 20
47.949978
 11
-23.374518
 21
50.965978
 39
0.006944
 62
1
  0
LINE
  8
ADA_Sink_End
 10
-22.614520
 20
47.829977
 11
-22.614520
 21
51.085977
 39
0.006944
 62
1
  0
LINE
  8
ADA_Sink_End
 10
-23.374518
 20
47.949978
 11
-23.374518
 21
47.829977
 39
0.006944
 62
1
  0
LINE
  8
ADA_Sink_End
 10
-23.374518
 20
47.949978
 11
-23.374518
 21
47.829977
 39
0.006944
 62
1
  0
LINE
  8
ADA_Sink_End
 10
-23.374518
 20
47.949978
 11
-23.374518
 21
47.949978
 39
0.006944
 62
1
  0
LINE
  8
ADA_Sink_End
 10
-23.374518
 20
47.949978
 11
-23.374518
 21
47.949978
 39
0.006944
 62
1
  0
LINE
  8
ADA_Sink_End
 10
-23.374518
 20
47.829977
 11
-22.614520
 21
47.829977
 39
0.006944
 62
1
  0
LINE
  8
ADA_Sink_End
 10
-23.374518
 20
47.829977
 11
-22.614520
 21
47.829977
 39
0.006944
 62
1
  0
LINE
  8
ADA_Sink_End
 10
-22.489520
 20
47.849977
 11
-22.489520
 21
47.829977
 39
0.006944
 62
1
  0
LINE
  8
ADA_Sink_End
 10
-22.489520
 20
47.849977
 11
-22.489520
 21
47.829977
 39
0.006944
 62
1
  0
LINE
  8
ADA_Sink_End
 10
-22.614520
 20
47.829977
 11
-22.489520
 21
47.829977
 39
0.006944
 62
1
  0
LINE
  8
ADA_Sink_End
 10
-22.489520
 20
47.829977
 11
-22.489520
 21
47.849977
 39
0.006944
 62
1
  0
LINE
  8
ADA_Sink_End
 10
-22.469519
 20
47.845506
 11
-22.489520
 21
47.829977
 39
0.006944
 62
1
  0
LINE
  8
ADA_Sink_End
 10
-22.489520
 20
47.829977
 11
-22.469519
 21
47.845506
 39
0.006944
 62
1
  0
LINE
  8
ADA_Sink_End
 10
-14.654265
 20
45.847231
 11
-22.469519
 21
47.845506
 39
0.006944
 62
1
  0
LINE
  8
ADA_Sink_End
 10
-22.489520
 20
47.829977
 11
-14.667520
 21
45.829977
 39
0.006944
 62
1
  0
LINE
  8
ADA_Sink_End
 10
-22.469519
 20
47.845506
 11
-14.654265
 21
45.847231
 39
0.006944
 62
1
  0
LINE
  8
ADA_Sink_End
 10
-14.654265
 20
45.847231
 11
-14.667520
 21
45.829977
 39
0.006944
 62
1
  0
LINE
  8
ADA_Sink_End
 10
-14.667520
 20
45.829977
 11
-14.654265
 21
45.847231
 39
0.006944
 62
1
  0
LINE
  8
ADA_Sink_End
 10
-14.694674
 20
45.670898
 11
-15.357991
 21
45.299938
 39
0.006944
 62
1
  0
LINE
  8
ADA_Sink_End
 10
-14.694674
 20
45.670898
 11
-15.357991
 21
45.299938
 39
0.006944
 62
1
  0
LINE
  8
ADA_Sink_End
 10
-14.636101
 20
45.566164
 11
-14.636101
 21
45.566164
 39
0.006944
 62
1
  0
LINE
  8
ADA_Sink_End
 10
-14.636101
 20
45.566164
 11
-14.636101
 21
45.566164
 39
0.006944
 62
1
  0
LINE
  8
ADA_Sink_End
 10
-15.357991
 20
45.299938
 11
-15.299418
 21
45.195204
 39
0.006944
 62
1
  0
LINE
  8
ADA_Sink_End
 10
-14.667520
 20
45.829977
 11
-13.800906
 21
44.284502
 39
0.006944
 62
1
  0
LINE
  8
ADA_Sink_End
 10
-13.800906
 20
44.284502
 11
-13.892881
 21
44.237200
 39
0.006944
 62
1
  0
LINE
  8
ADA_Sink_End
 10
-13.800906
 20
44.284502
 11
-13.892881
 21
44.237200
 39
0.006944
 62
1
  0
LINE
  8
ADA_Sink_End
 10
-12.916074
 20
42.490568
 11
-12.822077
 21
42.538910
 39
0.006944
 62
1
  0
LINE
  8
ADA_Sink_End
 10
0.635481
 20
51.335977
 11
-22.469519
 21
51.335977
 39
0.006944
 62
1
  0
LINE
  8
ADA_Sink_End
 10
0.635481
 20
51.335977
 11
-0.124522
 21
51.335977
 39
0.006944
 62
1
  0
LINE
  8
ADA_Sink_End
 10
0.635481
 20
51.335977
 11
-0.124522
 21
51.335977
 39
0.006944
 62
1
  0
LINE
  8
ADA_Sink_End
 10
0.635481
 20
51.335977
 11
-0.124522
 21
51.335977
 39
0.006944
 62
1
  0
LINE
  8
ADA_Sink_End
 10
0.635481
 20
51.335977
 11
-0.124522
 21
51.335977
 39
0.006944
 62
1
  0
LINE
  8
ADA_Sink_End
 10
0.635481
 20
27.855978
 11
0.635481
 21
51.335977
 39
0.006944
 62
1
  0
LINE
  8
ADA_Sink_End
 10
-4.565807
 20
27.855978
 11
-14.654265
 21
45.847231
 39
0.006944
 62
1
  0
LINE
  8
ADA_Sink_End
 10
-14.667520
 20
45.829977
 11
-4.577520
 21
27.835978
 39
0.006944
 62
1
  0
LINE
  8
ADA_Sink_End
 10
-14.654265
 20
45.847231
 11
-4.565807
 21
27.855978
 39
0.006944
 62
1
  0
LINE
  8
ADA_Sink_End
 10
-15.357991
 20
45.299938
 11
-5.351838
 21
27.407849
 39
0.006944
 62
1
  0
LINE
  8
ADA_Sink_End
 10
-6.362361
 20
30.771821
 11
-12.916074
 21
42.490569
 39
0.006944
 62
1
  0
LINE
  8
ADA_Sink_End
 10
-14.694674
 20
45.670898
 11
-4.688522
 21
27.778808
 39
0.006944
 62
1
  0
LINE
  8
ADA_Sink_End
 10
-4.747091
 20
27.883544
 11
-14.636101
 21
45.566164
 39
0.006944
 62
1
  0
LINE
  8
ADA_Sink_End
 10
-4.688522
 20
27.778808
 11
-14.694674
 21
45.670898
 39
0.006944
 62
1
  0
LINE
  8
ADA_Sink_End
 10
-4.747091
 20
27.883544
 11
-14.636101
 21
45.566164
 39
0.006944
 62
1
  0
LINE
  8
ADA_Sink_End
 10
-6.362361
 20
30.771821
 11
-12.916074
 21
42.490569
 39
0.006944
 62
1
  0
LINE
  8
ADA_Sink_End
 10
-14.636101
 20
45.566164
 11
-4.747091
 21
27.883544
 39
0.006944
 62
1
  0
LINE
  8
ADA_Sink_End
 10
-12.822078
 20
42.538911
 11
-6.254790
 21
30.827139
 39
0.006944
 62
1
  0
LINE
  8
ADA_Sink_End
 10
-6.254790
 20
30.827139
 11
-6.362361
 21
30.771818
 39
0.006944
 62
1
  0
LINE
  8
ADA_Sink_End
 10
-5.385557
 20
29.025182
 11
-5.275965
 21
29.081547
 39
0.006944
 62
1
  0
LINE
  8
ADA_Sink_End
 10
-5.385557
 20
29.025182
 11
-5.275965
 21
29.081547
 39
0.006944
 62
1
  0
LINE
  8
ADA_Sink_End
 10
-6.074043
 20
28.699232
 11
-6.062604
 21
28.676989
 39
0.006944
 62
1
  0
LINE
  8
ADA_Sink_End
 10
-6.062604
 20
28.676989
 11
-6.061827
 21
28.677386
 39
0.006944
 62
1
  0
LINE
  8
ADA_Sink_End
 10
-6.062604
 20
28.676989
 11
-6.061827
 21
28.677386
 39
0.006944
 62
1
  0
LINE
  8
ADA_Sink_End
 10
-6.061827
 20
28.677388
 11
-5.410407
 21
27.512580
 39
0.006944
 62
1
  0
LINE
  8
ADA_Sink_End
 10
-4.747091
 20
27.883544
 11
-5.385553
 21
29.025185
 39
0.006944
 62
1
  0
LINE
  8
ADA_Sink_End
 10
-4.747091
 20
27.883544
 11
-5.385553
 21
29.025185
 39
0.006944
 62
1
  0
LINE
  8
ADA_Sink_End
 10
-5.275961
 20
29.081547
 11
-4.577520
 21
27.835978
 39
0.006944
 62
1
  0
LINE
  8
ADA_Sink_End
 10
-4.747091
 20
27.883544
 11
-4.747091
 21
27.883544
 39
0.006944
 62
1
  0
LINE
  8
ADA_Sink_End
 10
-4.747091
 20
27.883544
 11
-4.747091
 21
27.883544
 39
0.006944
 62
1
  0
LINE
  8
ADA_Sink_End
 10
-5.410407
 20
27.512580
 11
-5.351838
 21
27.407849
 39
0.006944
 62
1
  0
LINE
  8
ADA_Sink_End
 10
-5.351838
 20
27.407849
 11
-4.688522
 21
27.778808
 39
0.006944
 62
1
  0
LINE
  8
ADA_Sink_End
 10
-4.688522
 20
27.778808
 11
-4.747091
 21
27.883544
 39
0.006944
 62
1
  0
LINE
  8
ADA_Sink_End
 10
-4.688522
 20
27.778808
 11
-4.747091
 21
27.883544
 39
0.006944
 62
1
  0
LINE
  8
ADA_Sink_End
 10
-5.351838
 20
27.407849
 11
-4.688522
 21
27.778808
 39
0.006944
 62
1
  0
LINE
  8
ADA_Sink_End
 10
-5.351838
 20
27.407849
 11
-4.688522
 21
27.778808
 39
0.006944
 62
1
  0
LINE
  8
ADA_Sink_End
 10
-4.688522
 20
27.778808
 11
-4.747091
 21
27.883544
 39
0.006944
 62
1
  0
LINE
  8
ADA_Sink_End
 10
-4.577520
 20
27.835973
 11
-4.577520
 21
27.830418
 39
0.006944
 62
1
  0
LINE
  8
ADA_Sink_End
 10
-4.577520
 20
27.830418
 11
-4.557519
 21
27.830418
 39
0.006944
 62
1
  0
LINE
  8
ADA_Sink_End
 10
-4.557519
 20
27.830418
 11
-4.557519
 21
27.835978
 39
0.006944
 62
1
  0
LINE
  8
ADA_Sink_End
 10
-4.577520
 20
27.830418
 11
-4.557519
 21
27.830418
 39
0.006944
 62
1
  0
LINE
  8
ADA_Sink_End
 10
-4.577520
 20
27.835973
 11
-4.577520
 21
27.830418
 39
0.006944
 62
1
  0
LINE
  8
ADA_Sink_End
 10
-4.577520
 20
27.835973
 11
-4.577520
 21
27.830418
 39
0.006944
 62
1
  0
LINE
  8
ADA_Sink_End
 10
-4.557519
 20
27.835978
 11
-4.557519
 21
27.830418
 39
0.006944
 62
1
  0
LINE
  8
ADA_Sink_End
 10
-4.565807
 20
27.855975
 11
-4.577520
 21
27.835978
 39
0.006944
 62
1
  0
LINE
  8
ADA_Sink_End
 10
-4.565807
 20
27.855978
 11
-4.565807
 21
27.855975
 39
0.006944
 62
1
  0
LINE
  8
ADA_Sink_End
 10
-4.577520
 20
27.835978
 11
-4.565807
 21
27.855978
 39
0.006944
 62
1
  0
LINE
  8
ADA_Sink_End
 10
-4.557519
 20
27.830418
 11
-0.577519
 21
27.830418
 39
0.006944
 62
1
  0
LINE
  8
ADA_Sink_End
 10
-4.557519
 20
27.830418
 11
-0.577519
 21
27.830418
 39
0.006944
 62
1
  0
LINE
  8
ADA_Sink_End
 10
0.635481
 20
27.855978
 11
-4.565807
 21
27.855978
 39
0.006944
 62
1
  0
LINE
  8
ADA_Sink_End
 10
-4.577520
 20
27.835978
 11
0.635481
 21
27.835978
 39
0.006944
 62
1
  0
LINE
  8
ADA_Sink_End
 10
-4.565807
 20
27.855978
 11
0.635481
 21
27.855978
 39
0.006944
 62
1
  0
LINE
  8
ADA_Sink_End
 10
-0.577519
 20
27.830418
 11
-0.577519
 21
27.835978
 39
0.006944
 62
1
  0
LINE
  8
ADA_Sink_End
 10
-0.577519
 20
27.830418
 11
-0.577519
 21
27.835978
 39
0.006944
 62
1
  0
LINE
  8
ADA_Sink_End
 10
0.635481
 20
27.835978
 11
0.635481
 21
27.855978
 39
0.006944
 62
1
  0
LINE
  8
ADA_Sink_End
 10
-26.308418
 20
47.829977
 11
-24.374518
 21
47.829977
 39
0.006944
 62
1
  0
LINE
  8
ADA_Sink_End
 10
-26.308418
 20
18.829977
 11
10.450428
 21
18.829977
 39
0.006944
 62
1
  0
LINE
  8
ADA_Sink_End
 10
-25.308418
 20
47.829977
 11
-25.308418
 21
36.328616
 39
0.006944
 62
1
  0
LINE
  8
ADA_Sink_End
 10
-25.308418
 20
30.331337
 11
-25.308418
 21
18.829977
 39
0.006944
 62
1
  0
TEXT
  8
ADA_Sink_End
 10
-26.580526
 20
36.128616
 11
-26.580526
 21
36.128616
 40
2.000000
 41
0.45
 50
-90.000000
 72
0
 73
1
 62
1
  1
29.000
  0
LINE
  8
ADA_Sink_End
 10
-23.070326
 20
45.829977
 11
-15.667520
 21
45.829977
 39
0.006944
 62
1
  0
LINE
  8
ADA_Sink_End
 10
-23.070326
 20
18.829977
 11
7.294635
 21
18.829977
 39
0.006944
 62
1
  0
LINE
  8
ADA_Sink_End
 10
-22.070326
 20
45.829977
 11
-22.070326
 21
35.328616
 39
0.006944
 62
1
  0
LINE
  8
ADA_Sink_End
 10
-22.070326
 20
29.331337
 11
-22.070326
 21
18.829977
 39
0.006944
 62
1
  0
TEXT
  8
ADA_Sink_End
 10
-23.342435
 20
35.128616
 11
-23.342435
 21
35.128616
 40
2.000000
 41
0.45
 50
-90.000000
 72
0
 73
1
 62
1
  1
27.000
  0
LINE
  8
ADA_Sink_End
 10
-2.890080
 20
27.835977
 11
-0.364520
 21
27.835977
 39
0.006944
 62
1
  0
LINE
  8
ADA_Sink_End
 10
-2.890080
 20
18.835977
 11
-0.330884
 21
18.835977
 39
0.006944
 62
1
  0
LINE
  8
ADA_Sink_End
 10
-1.890080
 20
27.835977
 11
-1.890080
 21
25.825773
 39
0.006944
 62
1
  0
LINE
  8
ADA_Sink_End
 10
-1.890080
 20
20.846181
 11
-1.890080
 21
18.835977
 39
0.006944
 62
1
  0
TEXT
  8
ADA_Sink_End
 10
-3.162189
 20
25.625773
 11
-3.162189
 21
25.625773
 40
2.000000
 41
0.45
 50
-90.000000
 72
0
 73
1
 62
1
  1
9.000
  0
LINE
  8
ADA_Sink_End
 10
-23.374518
 20
54.490788
 11
-23.374518
 21
52.085977
 39
0.006944
 62
1
  0
LINE
  8
ADA_Sink_End
 10
0.635481
 20
54.490788
 11
0.635481
 21
52.335977
 39
0.006944
 62
1
  0
LINE
  8
ADA_Sink_End
 10
-23.374518
 20
53.490788
 11
0.635481
 21
53.490788
 39
0.006944
 62
1
  0
LINE
  8
ADA_Sink_End
 10
-5.387463
 20
15.773147
 11
-5.387463
 21
26.513807
 39
0.006944
 62
1
  0
LINE
  8
ADA_Sink_End
 10
0.612537
 20
15.773147
 11
0.612537
 21
26.834751
 39
0.006944
 62
1
  0
LINE
  8
ADA_Sink_End
 10
-5.387463
 20
16.773147
 11
-5.216488
 21
16.773147
 39
0.006944
 62
1
  0
LINE
  8
ADA_Sink_End
 10
0.441562
 20
16.773147
 11
0.612537
 21
16.773147
 39
0.006944
 62
1
  0
TEXT
  8
ADA_Sink_End
 10
-5.016488
 20
15.501038
 11
-5.016488
 21
15.501038
 40
2.000000
 41
0.45
 50
0.000000
 72
0
 73
1
 62
1
  1
6.000
  0
LINE
  8
ADA_Sink_End
 10
4.660933
 20
27.835978
 11
1.635481
 21
27.835978
 39
0.006944
 62
1
  0
LINE
  8
ADA_Sink_End
 10
4.660933
 20
51.335977
 11
1.635481
 21
51.335977
 39
0.006944
 62
1
  0
LINE
  8
ADA_Sink_End
 10
3.660933
 20
27.835978
 11
3.660933
 21
36.587338
 39
0.006944
 62
1
  0
LINE
  8
ADA_Sink_End
 10
3.660933
 20
42.584617
 11
3.660933
 21
51.335977
 39
0.006944
 62
1
  0
TEXT
  8
ADA_Sink_End
 10
4.933042
 20
36.787338
 11
4.933042
 21
36.787338
 40
2.000000
 41
0.45
 50
90.000000
 72
0
 73
1
 62
1
  1
23.500
  0
LINE
  8
ADA_Sink_End
 10
-23.366255
 20
40.058831
 11
-23.366255
 21
46.827369
 39
0.006944
 62
1
  0
LINE
  8
ADA_Sink_End
 10
-15.366255
 20
40.058831
 11
-15.366255
 21
44.302546
 39
0.006944
 62
1
  0
LINE
  8
ADA_Sink_End
 10
-23.366255
 20
41.058831
 11
-22.195280
 21
41.058831
 39
0.006944
 62
1
  0
LINE
  8
ADA_Sink_End
 10
-16.537230
 20
41.058831
 11
-15.366255
 21
41.058831
 39
0.006944
 62
1
  0
TEXT
  8
ADA_Sink_End
 10
-21.995280
 20
39.786722
 11
-21.995280
 21
39.786722
 40
2.000000
 41
0.45
 50
0.000000
 72
0
 73
1
 62
1
  1
8.000
  0
LINE
  8
ADA_Sink_End
 10
-26.060116
 20
47.831673
 11
-24.365332
 21
47.831673
 39
0.006944
 62
1
  0
LINE
  8
ADA_Sink_End
 10
-26.060116
 20
51.331673
 11
-23.615442
 21
51.331673
 39
0.006944
 62
1
  0
TEXT
  8
ADA_Sink_End
 10
-26.060116
 20
47.291877
 11
-26.060116
 21
47.291877
 40
2.000000
 41
0.45
 50
90.000000
 72
0
 73
1
 62
1
  1
3.500
  0
TEXT
  8
ADA_Sink_End
 10
-19.480285
 20
33.437521
 11
-19.480285
 21
33.437521
 40
1.250000
 41
0.45
 50
0.000000
 72
0
 73
0
 62
1
  1
REMOVABLE
  0
TEXT
  8
ADA_Sink_End
 10
-19.107210
 20
31.833299
 11
-19.107210
 21
31.833299
 40
1.250000
 41
0.45
 50
0.000000
 72
0
 73
0
 62
1
  1
PANEL
  0
POLYLINE
  8
ADA_Sink_End
 66
     1
 10
0.0
 20
0.0
 39
0.006944
 62
1
  0
VERTEX
  8
ADA_Sink_End
 10
-14.570712
 20
31.956888
 62
1
  0
VERTEX
  8
ADA_Sink_End
 10
-8.754831
 20
33.515248
 62
1
  0
SEQEND
  8
ADA_Sink_End
  0
POLYLINE
  8
ADA_Sink_End
 66
     1
 10
0.0
 20
0.0
 39
0.006944
 62
1
 70
     1
  0
VERTEX
  8
ADA_Sink_End
 10
-9.772521
 20
33.449614
 62
1
  0
VERTEX
  8
ADA_Sink_End
 10
-8.754831
 20
33.515248
 62
1
  0
VERTEX
  8
ADA_Sink_End
 10
-9.668993
 20
33.063244
 62
1
  0
SEQEND
  8
ADA_Sink_End
  0
TEXT
  8
ADA_Sink_End
 10
-15.095692
 20
54.107031
 11
-15.095692
 21
54.107031
 40
1.500000
 41
0.45
 50
0.000000
 72
0
 73
0
 62
1
  1
DEPTH
  0
LINE
  8
ADA_Sink_3D
 10
-80.058052
 20
6.903669
 11
-80.058052
 21
6.882959
 39
0.006944
 62
1
  0
LINE
  8
ADA_Sink_3D
 10
-62.970476
 20
9.572705
 11
-80.058052
 21
6.882959
 39
0.006944
 62
1
  0
LINE
  8
ADA_Sink_3D
 10
-80.058052
 20
6.882959
 11
-62.970476
 21
9.572705
 39
0.006944
 62
1
  0
LINE
  8
ADA_Sink_3D
 10
-62.952403
 20
9.600853
 11
-80.058052
 21
6.903669
 39
0.006944
 62
1
  0
LINE
  8
ADA_Sink_3D
 10
-62.970476
 20
9.572705
 11
-80.058052
 21
6.882959
 39
0.006944
 62
1
  0
LINE
  8
ADA_Sink_3D
 10
-62.090079
 20
9.399493
 11
-62.783544
 21
9.292608
 39
0.006944
 62
1
  0
LINE
  8
ADA_Sink_3D
 10
-62.090079
 20
9.399493
 11
-62.783544
 21
9.292608
 39
0.006944
 62
1
  0
LINE
  8
ADA_Sink_3D
 10
-62.284395
 20
9.369543
 11
-62.284395
 21
9.485621
 39
0.006944
 62
1
  0
LINE
  8
ADA_Sink_3D
 10
-62.284395
 20
9.485621
 11
-62.284395
 21
9.369543
 39
0.006944
 62
1
  0
LINE
  8
ADA_Sink_3D
 10
-62.970476
 20
9.572705
 11
-62.952403
 21
9.600853
 39
0.006944
 62
1
  0
LINE
  8
ADA_Sink_3D
 10
-62.952403
 20
9.600853
 11
-62.970476
 21
9.572705
 39
0.006944
 62
1
  0
LINE
  8
ADA_Sink_3D
 10
-62.284395
 20
9.485622
 11
-62.952403
 21
9.600853
 39
0.006944
 62
1
  0
LINE
  8
ADA_Sink_3D
 10
-62.952403
 20
9.600853
 11
-62.970476
 21
9.572705
 39
0.006944
 62
1
  0
LINE
  8
ADA_Sink_3D
 10
-62.284395
 20
9.369543
 11
-62.284395
 21
9.485621
 39
0.006944
 62
1
  0
LINE
  8
ADA_Sink_3D
 10
-62.284395
 20
9.485622
 11
-62.952403
 21
9.600853
 39
0.006944
 62
1
  0
LINE
  8
ADA_Sink_3D
 10
-61.984149
 20
9.228470
 11
-62.090079
 21
9.399493
 39
0.006944
 62
1
  0
LINE
  8
ADA_Sink_3D
 10
-62.090079
 20
9.399493
 11
-61.984149
 21
9.228470
 39
0.006944
 62
1
  0
LINE
  8
ADA_Sink_3D
 10
-61.984149
 20
9.228470
 11
-62.090079
 21
9.399493
 39
0.006944
 62
1
  0
LINE
  8
ADA_Sink_3D
 10
-62.970476
 20
5.183270
 11
-62.970476
 21
9.572705
 39
0.006944
 62
1
  0
LINE
  8
ADA_Sink_3D
 10
-62.783544
 20
9.292608
 11
-62.783544
 21
5.171374
 39
0.006944
 62
1
  0
LINE
  8
ADA_Sink_3D
 10
-62.970476
 20
9.572705
 11
-62.970476
 21
5.183270
 39
0.006944
 62
1
  0
LINE
  8
ADA_Sink_3D
 10
-62.952403
 20
5.165629
 11
-62.952403
 21
9.600853
 39
0.006944
 62
1
  0
LINE
  8
ADA_Sink_3D
 10
-62.952403
 20
9.600853
 11
-62.952403
 21
5.165629
 39
0.006944
 62
1
  0
LINE
  8
ADA_Sink_3D
 10
-62.970476
 20
9.572705
 11
-62.970476
 21
5.183270
 39
0.006944
 62
1
  0
LINE
  8
ADA_Sink_3D
 10
-61.984149
 20
5.387759
 11
-61.984149
 21
9.228470
 39
0.006944
 62
1
  0
LINE
  8
ADA_Sink_3D
 10
-62.090079
 20
9.399493
 11
-62.090079
 21
5.247995
 39
0.006944
 62
1
  0
LINE
  8
ADA_Sink_3D
 10
-62.090079
 20
5.247995
 11
-62.090079
 21
9.399493
 39
0.006944
 62
1
  0
LINE
  8
ADA_Sink_3D
 10
-61.984149
 20
5.387759
 11
-61.984149
 21
9.228470
 39
0.006944
 62
1
  0
LINE
  8
ADA_Sink_3D
 10
-61.984149
 20
9.228470
 11
-61.984149
 21
5.387759
 39
0.006944
 62
1
  0
LINE
  8
ADA_Sink_3D
 10
-62.783544
 20
5.171374
 11
-62.090079
 21
5.247995
 39
0.006944
 62
1
  0
LINE
  8
ADA_Sink_3D
 10
-62.783544
 20
5.171374
 11
-62.090079
 21
5.247995
 39
0.006944
 62
1
  0
LINE
  8
ADA_Sink_3D
 10
-62.090079
 20
5.247995
 11
-62.783544
 21
5.171374
 39
0.006944
 62
1
  0
LINE
  8
ADA_Sink_3D
 10
-62.284395
 20
5.109886
 11
-62.284395
 21
5.084779
 39
0.006944
 62
1
  0
LINE
  8
ADA_Sink_3D
 10
-62.284395
 20
5.084779
 11
-62.284395
 21
5.109886
 39
0.006944
 62
1
  0
LINE
  8
ADA_Sink_3D
 10
-62.284395
 20
5.109885
 11
-62.284395
 21
5.110812
 39
0.006944
 62
1
  0
LINE
  8
ADA_Sink_3D
 10
-62.970476
 20
5.183270
 11
-62.952403
 21
5.165629
 39
0.006944
 62
1
  0
LINE
  8
ADA_Sink_3D
 10
-62.952403
 20
5.165629
 11
-62.284395
 21
5.084779
 39
0.006944
 62
1
  0
LINE
  8
ADA_Sink_3D
 10
-62.284395
 20
5.109885
 11
-62.284395
 21
5.110812
 39
0.006944
 62
1
  0
LINE
  8
ADA_Sink_3D
 10
-62.284395
 20
5.084779
 11
-62.284395
 21
5.109885
 39
0.006944
 62
1
  0
LINE
  8
ADA_Sink_3D
 10
-62.952403
 20
5.165629
 11
-62.970476
 21
5.183270
 39
0.006944
 62
1
  0
LINE
  8
ADA_Sink_3D
 10
-62.952403
 20
5.165629
 11
-62.284395
 21
5.084779
 39
0.006944
 62
1
  0
LINE
  8
ADA_Sink_3D
 10
-62.970476
 20
5.183270
 11
-62.952403
 21
5.165629
 39
0.006944
 62
1
  0
LINE
  8
ADA_Sink_3D
 10
-62.284395
 20
5.084779
 11
-62.952403
 21
5.165629
 39
0.006944
 62
1
  0
LINE
  8
ADA_Sink_3D
 10
-62.090079
 20
5.247995
 11
-61.984149
 21
5.387759
 39
0.006944
 62
1
  0
LINE
  8
ADA_Sink_3D
 10
-61.984149
 20
5.387759
 11
-62.090079
 21
5.247995
 39
0.006944
 62
1
  0
LINE
  8
ADA_Sink_3D
 10
-62.090079
 20
5.247995
 11
-61.984149
 21
5.387759
 39
0.006944
 62
1
  0
LINE
  8
ADA_Sink_3D
 10
-59.196209
 20
4.548145
 11
-62.574010
 21
4.950276
 39
0.006944
 62
1
  0
LINE
  8
ADA_Sink_3D
 10
-62.603819
 20
4.936434
 11
-59.196209
 21
4.531443
 39
0.006944
 62
1
  0
LINE
  8
ADA_Sink_3D
 10
-59.196209
 20
4.531443
 11
-62.603819
 21
4.936434
 39
0.006944
 62
1
  0
LINE
  8
ADA_Sink_3D
 10
-59.196209
 20
4.531443
 11
-62.603819
 21
4.936434
 39
0.006944
 62
1
  0
LINE
  8
ADA_Sink_3D
 10
-69.538306
 20
2.104014
 11
-62.970476
 21
5.183270
 39
0.006944
 62
1
  0
LINE
  8
ADA_Sink_3D
 10
-62.970476
 20
5.183270
 11
-69.538306
 21
2.104014
 39
0.006944
 62
1
  0
LINE
  8
ADA_Sink_3D
 10
-62.970476
 20
5.183270
 11
-69.538306
 21
2.104014
 39
0.006944
 62
1
  0
LINE
  8
ADA_Sink_3D
 10
-69.527941
 20
2.084581
 11
-62.952403
 21
5.165629
 39
0.006944
 62
1
  0
LINE
  8
ADA_Sink_3D
 10
-62.952403
 20
5.165629
 11
-69.527941
 21
2.084581
 39
0.006944
 62
1
  0
LINE
  8
ADA_Sink_3D
 10
-68.858751
 20
2.031563
 11
-62.284395
 21
5.084779
 39
0.006944
 62
1
  0
LINE
  8
ADA_Sink_3D
 10
-65.823543
 20
3.441150
 11
-61.556815
 21
3.024044
 39
0.006944
 62
1
  0
LINE
  8
ADA_Sink_3D
 10
-61.086216
 20
3.064811
 11
-65.660813
 21
3.516722
 39
0.006944
 62
1
  0
LINE
  8
ADA_Sink_3D
 10
-65.660816
 20
3.516724
 11
-61.086216
 21
3.064811
 39
0.006944
 62
1
  0
LINE
  8
ADA_Sink_3D
 10
-61.556814
 20
3.024044
 11
-61.086217
 21
3.064811
 39
0.006944
 62
1
  0
LINE
  8
ADA_Sink_3D
 10
-61.086217
 20
3.064811
 11
-61.556814
 21
3.024044
 39
0.006944
 62
1
  0
LINE
  8
ADA_Sink_3D
 10
-80.058052
 20
6.882959
 11
-80.058052
 21
-17.409659
 39
0.006944
 62
1
  0
LINE
  8
ADA_Sink_3D
 10
-69.538306
 20
2.104014
 11
-69.527941
 21
2.084581
 39
0.006944
 62
1
  0
LINE
  8
ADA_Sink_3D
 10
-69.527941
 20
2.084581
 11
-69.538306
 21
2.104014
 39
0.006944
 62
1
  0
LINE
  8
ADA_Sink_3D
 10
-69.538306
 20
2.104014
 11
-69.527941
 21
2.084581
 39
0.006944
 62
1
  0
LINE
  8
ADA_Sink_3D
 10
-69.527941
 20
2.084581
 11
-68.858751
 21
2.031563
 39
0.006944
 62
1
  0
LINE
  8
ADA_Sink_3D
 10
-69.527941
 20
2.084581
 11
-68.858751
 21
2.031563
 39
0.006944
 62
1
  0
LINE
  8
ADA_Sink_3D
 10
-68.923397
 20
1.854055
 11
-68.858752
 21
2.031562
 39
0.006944
 62
1
  0
LINE
  8
ADA_Sink_3D
 10
-68.858751
 20
2.031563
 11
-69.527941
 21
2.084581
 39
0.006944
 62
1
  0
LINE
  8
ADA_Sink_3D
 10
-68.868926
 20
1.363325
 11
-68.928785
 21
1.498394
 39
0.006944
 62
1
  0
LINE
  8
ADA_Sink_3D
 10
-68.928785
 20
1.498394
 11
-69.450859
 21
1.894798
 39
0.006944
 62
1
  0
LINE
  8
ADA_Sink_3D
 10
-68.928785
 20
1.498394
 11
-68.868926
 21
1.363325
 39
0.006944
 62
1
  0
LINE
  8
ADA_Sink_3D
 10
-68.928785
 20
1.498394
 11
-69.450859
 21
1.894798
 39
0.006944
 62
1
  0
LINE
  8
ADA_Sink_3D
 10
-68.868926
 20
1.363325
 11
-68.928785
 21
1.498394
 39
0.006944
 62
1
  0
LINE
  8
ADA_Sink_3D
 10
-69.450859
 20
1.894798
 11
-68.928785
 21
1.498394
 39
0.006944
 62
1
  0
LINE
  8
ADA_Sink_3D
 10
-61.556814
 20
3.024044
 11
-61.075901
 21
1.286696
 39
0.006944
 62
1
  0
LINE
  8
ADA_Sink_3D
 10
-60.605635
 20
1.318732
 11
-61.086217
 21
3.064811
 39
0.006944
 62
1
  0
LINE
  8
ADA_Sink_3D
 10
-61.086217
 20
3.064811
 11
-60.605635
 21
1.318732
 39
0.006944
 62
1
  0
LINE
  8
ADA_Sink_3D
 10
-61.075901
 20
1.286696
 11
-60.605635
 21
1.318732
 39
0.006944
 62
1
  0
LINE
  8
ADA_Sink_3D
 10
-60.605635
 20
1.318732
 11
-61.075901
 21
1.286696
 39
0.006944
 62
1
  0
LINE
  8
ADA_Sink_3D
 10
-43.037214
 20
6.165516
 11
-62.284395
 21
9.485622
 39
0.006944
 62
1
  0
LINE
  8
ADA_Sink_3D
 10
-61.984149
 20
9.228470
 11
-41.988161
 21
5.827394
 39
0.006944
 62
1
  0
LINE
  8
ADA_Sink_3D
 10
-41.926252
 20
5.933701
 11
-62.090079
 21
9.399493
 39
0.006944
 62
1
  0
LINE
  8
ADA_Sink_3D
 10
-41.988161
 20
5.827394
 11
-61.984149
 21
9.228470
 39
0.006944
 62
1
  0
LINE
  8
ADA_Sink_3D
 10
-41.988161
 20
5.827394
 11
-61.984149
 21
9.228470
 39
0.006944
 62
1
  0
LINE
  8
ADA_Sink_3D
 10
-59.196210
 20
4.531443
 11
-59.196210
 21
4.548144
 39
0.006944
 62
1
  0
LINE
  8
ADA_Sink_3D
 10
-59.136919
 20
4.554078
 11
-59.196198
 21
4.548145
 39
0.006944
 62
1
  0
LINE
  8
ADA_Sink_3D
 10
-59.196210
 20
1.208061
 11
-59.196210
 21
4.531443
 39
0.006944
 62
1
  0
LINE
  8
ADA_Sink_3D
 10
-41.988161
 20
2.888054
 11
-61.984149
 21
5.387759
 39
0.006944
 62
1
  0
LINE
  8
ADA_Sink_3D
 10
-41.988161
 20
2.888054
 11
-61.984149
 21
5.387759
 39
0.006944
 62
1
  0
LINE
  8
ADA_Sink_3D
 10
-61.984149
 20
5.387759
 11
-41.988161
 21
2.888054
 39
0.006944
 62
1
  0
LINE
  8
ADA_Sink_3D
 10
-62.550824
 20
4.961046
 11
-43.673278
 21
2.710670
 39
0.006944
 62
1
  0
LINE
  8
ADA_Sink_3D
 10
-62.783544
 20
5.171374
 11
-42.569152
 21
2.718719
 39
0.006944
 62
1
  0
LINE
  8
ADA_Sink_3D
 10
-43.037214
 20
2.774791
 11
-62.284395
 21
5.109886
 39
0.006944
 62
1
  0
LINE
  8
ADA_Sink_3D
 10
-62.284395
 20
5.084779
 11
-43.037214
 21
2.755339
 39
0.006944
 62
1
  0
LINE
  8
ADA_Sink_3D
 10
-43.037214
 20
2.755339
 11
-62.284395
 21
5.084779
 39
0.006944
 62
1
  0
LINE
  8
ADA_Sink_3D
 10
-43.037214
 20
2.774791
 11
-62.284395
 21
5.109886
 39
0.006944
 62
1
  0
LINE
  8
ADA_Sink_3D
 10
-62.284395
 20
5.109886
 11
-43.037214
 21
2.774791
 39
0.006944
 62
1
  0
LINE
  8
ADA_Sink_3D
 10
-62.090079
 20
5.247995
 11
-41.926252
 21
2.763475
 39
0.006944
 62
1
  0
LINE
  8
ADA_Sink_3D
 10
-41.926252
 20
2.763475
 11
-62.090079
 21
5.247995
 39
0.006944
 62
1
  0
LINE
  8
ADA_Sink_3D
 10
-43.037216
 20
6.124658
 11
-43.037216
 21
6.165516
 39
0.006944
 62
1
  0
LINE
  8
ADA_Sink_3D
 10
-43.037216
 20
6.124658
 11
-43.037216
 21
6.165516
 39
0.006944
 62
1
  0
LINE
  8
ADA_Sink_3D
 10
-43.037216
 20
6.165516
 11
-43.037221
 21
6.165516
 39
0.006944
 62
1
  0
LINE
  8
ADA_Sink_3D
 10
-42.641593
 20
6.097271
 11
-43.037214
 21
6.165516
 39
0.006944
 62
1
  0
LINE
  8
ADA_Sink_3D
 10
-43.037216
 20
6.165516
 11
-43.037216
 21
6.124658
 39
0.006944
 62
1
  0
LINE
  8
ADA_Sink_3D
 10
-42.641595
 20
6.056658
 11
-42.641595
 21
6.097272
 39
0.006944
 62
1
  0
LINE
  8
ADA_Sink_3D
 10
-43.037214
 20
2.755339
 11
-43.037214
 21
2.774791
 39
0.006944
 62
1
  0
LINE
  8
ADA_Sink_3D
 10
-43.105114
 20
2.750569
 11
-43.037216
 21
2.755338
 39
0.006944
 62
1
  0
LINE
  8
ADA_Sink_3D
 10
-43.673278
 20
2.710670
 11
-43.105114
 21
2.750569
 39
0.006944
 62
1
  0
LINE
  8
ADA_Sink_3D
 10
-43.037216
 20
2.774791
 11
-43.037216
 21
2.775510
 39
0.006944
 62
1
  0
LINE
  8
ADA_Sink_3D
 10
-43.037214
 20
2.755339
 11
-42.641593
 21
2.707457
 39
0.006944
 62
1
  0
LINE
  8
ADA_Sink_3D
 10
-42.641593
 20
2.707457
 11
-43.037214
 21
2.755339
 39
0.006944
 62
1
  0
LINE
  8
ADA_Sink_3D
 10
-43.037216
 20
2.774789
 11
-43.037216
 21
2.775510
 39
0.006944
 62
1
  0
LINE
  8
ADA_Sink_3D
 10
-43.037216
 20
2.755338
 11
-43.037216
 21
2.774789
 39
0.006944
 62
1
  0
LINE
  8
ADA_Sink_3D
 10
-43.037216
 20
2.775510
 11
-43.037216
 21
2.755338
 39
0.006944
 62
1
  0
LINE
  8
ADA_Sink_3D
 10
-43.037214
 20
2.755339
 11
-42.641593
 21
2.707457
 39
0.006944
 62
1
  0
LINE
  8
ADA_Sink_3D
 10
-42.569152
 20
2.718719
 11
-41.926252
 21
2.763475
 39
0.006944
 62
1
  0
LINE
  8
ADA_Sink_3D
 10
-42.569152
 20
2.718719
 11
-41.926252
 21
2.763475
 39
0.006944
 62
1
  0
LINE
  8
ADA_Sink_3D
 10
-42.641595
 20
2.707457
 11
-42.641595
 21
2.727510
 39
0.006944
 62
1
  0
LINE
  8
ADA_Sink_3D
 10
-41.988161
 20
5.827394
 11
-41.926252
 21
5.933701
 39
0.006944
 62
1
  0
LINE
  8
ADA_Sink_3D
 10
-41.926252
 20
5.933701
 11
-41.988161
 21
5.827394
 39
0.006944
 62
1
  0
LINE
  8
ADA_Sink_3D
 10
-41.988161
 20
5.827394
 11
-41.926252
 21
5.933701
 39
0.006944
 62
1
  0
LINE
  8
ADA_Sink_3D
 10
-41.988161
 20
5.827394
 11
-41.988161
 21
2.888054
 39
0.006944
 62
1
  0
LINE
  8
ADA_Sink_3D
 10
-41.926252
 20
2.763475
 11
-41.926252
 21
5.933701
 39
0.006944
 62
1
  0
LINE
  8
ADA_Sink_3D
 10
-41.988161
 20
2.888054
 11
-41.988161
 21
5.827394
 39
0.006944
 62
1
  0
LINE
  8
ADA_Sink_3D
 10
-41.988161
 20
2.888054
 11
-41.988161
 21
5.827394
 39
0.006944
 62
1
  0
LINE
  8
ADA_Sink_3D
 10
-41.988161
 20
2.888054
 11
-41.926252
 21
2.763475
 39
0.006944
 62
1
  0
LINE
  8
ADA_Sink_3D
 10
-41.926252
 20
2.763475
 11
-41.988161
 21
2.888054
 39
0.006944
 62
1
  0
LINE
  8
ADA_Sink_3D
 10
-41.926252
 20
2.763475
 11
-41.988161
 21
2.888054
 39
0.006944
 62
1
  0
LINE
  8
ADA_Sink_3D
 10
-61.075901
 20
1.286696
 11
-59.665352
 21
1.177090
 39
0.006944
 62
1
  0
LINE
  8
ADA_Sink_3D
 10
-48.865509
 20
0.304692
 11
-69.450859
 21
1.894798
 39
0.006944
 62
1
  0
LINE
  8
ADA_Sink_3D
 10
-59.665352
 20
1.177090
 11
-59.196210
 21
1.208061
 39
0.006944
 62
1
  0
LINE
  8
ADA_Sink_3D
 10
-59.196210
 20
1.208061
 11
-60.605635
 21
1.318732
 39
0.006944
 62
1
  0
LINE
  8
ADA_Sink_3D
 10
-60.605635
 20
1.318732
 11
-59.196210
 21
1.208061
 39
0.006944
 62
1
  0
LINE
  8
ADA_Sink_3D
 10
-59.665354
 20
1.177089
 11
-59.665354
 21
1.138921
 39
0.006944
 62
1
  0
LINE
  8
ADA_Sink_3D
 10
-68.868926
 20
1.363325
 11
-48.473461
 21
-0.104358
 39
0.006944
 62
1
  0
LINE
  8
ADA_Sink_3D
 10
-48.364818
 20
-0.010597
 11
-68.928785
 21
1.498394
 39
0.006944
 62
1
  0
LINE
  8
ADA_Sink_3D
 10
-68.928785
 20
1.498394
 11
-48.364818
 21
-0.010597
 39
0.006944
 62
1
  0
LINE
  8
ADA_Sink_3D
 10
-68.868926
 20
1.363325
 11
-48.473461
 21
-0.104358
 39
0.006944
 62
1
  0
LINE
  8
ADA_Sink_3D
 10
-48.473461
 20
-0.104358
 11
-68.868926
 21
1.363325
 39
0.006944
 62
1
  0
LINE
  8
ADA_Sink_3D
 10
-49.323661
 20
0.340083
 11
-49.261480
 21
0.478937
 39
0.006944
 62
1
  0
LINE
  8
ADA_Sink_3D
 10
-49.261480
 20
0.478937
 11
-49.271445
 21
0.494273
 39
0.006944
 62
1
  0
LINE
  8
ADA_Sink_3D
 10
-49.271447
 20
0.494272
 11
-49.339921
 21
0.341338
 39
0.006944
 62
1
  0
LINE
  8
ADA_Sink_3D
 10
-49.271447
 20
0.494270
 11
-49.261480
 21
0.478937
 39
0.006944
 62
1
  0
LINE
  8
ADA_Sink_3D
 10
-49.271447
 20
0.494272
 11
-49.271447
 21
0.494270
 39
0.006944
 62
1
  0
LINE
  8
ADA_Sink_3D
 10
-49.261480
 20
0.478937
 11
-48.852147
 21
0.446508
 39
0.006944
 62
1
  0
LINE
  8
ADA_Sink_3D
 10
-48.852147
 20
0.446508
 11
-49.261480
 21
0.478937
 39
0.006944
 62
1
  0
LINE
  8
ADA_Sink_3D
 10
-49.261480
 20
0.478937
 11
-49.323661
 21
0.340083
 39
0.006944
 62
1
  0
LINE
  8
ADA_Sink_3D
 10
-49.271447
 20
0.494270
 11
-49.261480
 21
0.478937
 39
0.006944
 62
1
  0
LINE
  8
ADA_Sink_3D
 10
-49.271447
 20
0.494272
 11
-49.271447
 21
0.494270
 39
0.006944
 62
1
  0
LINE
  8
ADA_Sink_3D
 10
-49.261480
 20
0.478937
 11
-48.852147
 21
0.446508
 39
0.006944
 62
1
  0
LINE
  8
ADA_Sink_3D
 10
-49.271447
 20
0.494272
 11
-49.339921
 21
0.341338
 39
0.006944
 62
1
  0
LINE
  8
ADA_Sink_3D
 10
-49.339921
 20
0.341338
 11
-49.271447
 21
0.494272
 39
0.006944
 62
1
  0
LINE
  8
ADA_Sink_3D
 10
-48.914217
 20
0.308454
 11
-48.852148
 21
0.446509
 39
0.006944
 62
1
  0
LINE
  8
ADA_Sink_3D
 10
-48.473461
 20
-0.104358
 11
-48.364818
 21
-0.010597
 39
0.006944
 62
1
  0
LINE
  8
ADA_Sink_3D
 10
-48.364818
 20
-0.010597
 11
-48.865509
 21
0.304692
 39
0.006944
 62
1
  0
LINE
  8
ADA_Sink_3D
 10
-48.364818
 20
-0.010597
 11
-48.473461
 21
-0.104358
 39
0.006944
 62
1
  0
LINE
  8
ADA_Sink_3D
 10
-48.364818
 20
-0.010597
 11
-48.865509
 21
0.304692
 39
0.006944
 62
1
  0
LINE
  8
ADA_Sink_3D
 10
-48.473461
 20
-0.104358
 11
-48.364818
 21
-0.010597
 39
0.006944
 62
1
  0
LINE
  8
ADA_Sink_3D
 10
-49.261480
 20
0.478937
 11
-43.037214
 21
2.755339
 39
0.006944
 62
1
  0
LINE
  8
ADA_Sink_3D
 10
-43.105114
 20
2.750571
 11
-49.271447
 21
0.494272
 39
0.006944
 62
1
  0
LINE
  8
ADA_Sink_3D
 10
-43.037214
 20
2.755339
 11
-49.261480
 21
0.478937
 39
0.006944
 62
1
  0
LINE
  8
ADA_Sink_3D
 10
-43.105114
 20
2.750571
 11
-49.271447
 21
0.494272
 39
0.006944
 62
1
  0
LINE
  8
ADA_Sink_3D
 10
-49.271447
 20
0.494272
 11
-43.105119
 21
2.750571
 39
0.006944
 62
1
  0
LINE
  8
ADA_Sink_3D
 10
-48.852147
 20
0.446508
 11
-42.641593
 21
2.707457
 39
0.006944
 62
1
  0
LINE
  8
ADA_Sink_3D
 10
-76.774770
 20
-17.926475
 11
-69.538306
 21
2.104014
 39
0.006944
 62
1
  0
LINE
  8
ADA_Sink_3D
 10
-69.450859
 20
1.894798
 11
-76.638690
 21
-18.015539
 39
0.006944
 62
1
  0
LINE
  8
ADA_Sink_3D
 10
-69.538306
 20
2.104014
 11
-76.774770
 21
-17.926475
 39
0.006944
 62
1
  0
LINE
  8
ADA_Sink_3D
 10
-76.767061
 20
-17.949282
 11
-69.527941
 21
2.084581
 39
0.006944
 62
1
  0
LINE
  8
ADA_Sink_3D
 10
-69.527941
 20
2.084581
 11
-76.767061
 21
-17.949282
 39
0.006944
 62
1
  0
LINE
  8
ADA_Sink_3D
 10
-69.538306
 20
2.104014
 11
-76.774770
 21
-17.926475
 39
0.006944
 62
1
  0
LINE
  8
ADA_Sink_3D
 10
-76.054592
 20
-18.366685
 11
-68.868926
 21
1.363325
 39
0.006944
 62
1
  0
LINE
  8
ADA_Sink_3D
 10
-68.928785
 20
1.498394
 11
-76.198836
 21
-18.487982
 39
0.006944
 62
1
  0
LINE
  8
ADA_Sink_3D
 10
-76.198836
 20
-18.487982
 11
-68.928785
 21
1.498394
 39
0.006944
 62
1
  0
LINE
  8
ADA_Sink_3D
 10
-76.054592
 20
-18.366685
 11
-68.868926
 21
1.363325
 39
0.006944
 62
1
  0
LINE
  8
ADA_Sink_3D
 10
-68.868926
 20
1.363325
 11
-76.054592
 21
-18.366685
 39
0.006944
 62
1
  0
LINE
  8
ADA_Sink_3D
 10
-80.058052
 20
-17.409659
 11
-80.058052
 21
-17.430369
 39
0.006944
 62
1
  0
LINE
  8
ADA_Sink_3D
 10
-80.058052
 20
-17.409659
 11
-76.774770
 21
-17.926475
 39
0.006944
 62
1
  0
LINE
  8
ADA_Sink_3D
 10
-76.774770
 20
-17.926475
 11
-80.058052
 21
-17.409659
 39
0.006944
 62
1
  0
LINE
  8
ADA_Sink_3D
 10
-80.058052
 20
-17.430369
 11
-76.767061
 21
-17.949282
 39
0.006944
 62
1
  0
LINE
  8
ADA_Sink_3D
 10
-80.058052
 20
-17.409659
 11
-76.774770
 21
-17.926475
 39
0.006944
 62
1
  0
LINE
  8
ADA_Sink_3D
 10
-76.638690
 20
-18.015539
 11
-76.198836
 21
-18.487982
 39
0.006944
 62
1
  0
LINE
  8
ADA_Sink_3D
 10
-76.638690
 20
-18.015539
 11
-76.198836
 21
-18.487982
 39
0.006944
 62
1
  0
LINE
  8
ADA_Sink_3D
 10
-76.774770
 20
-17.926475
 11
-76.767061
 21
-17.949282
 39
0.006944
 62
1
  0
LINE
  8
ADA_Sink_3D
 10
-76.767063
 20
-17.949282
 11
-76.607458
 21
-17.929033
 39
0.006944
 62
1
  0
LINE
  8
ADA_Sink_3D
 10
-76.767063
 20
-17.949278
 11
-76.774770
 21
-17.926476
 39
0.006944
 62
1
  0
LINE
  8
ADA_Sink_3D
 10
-76.767063
 20
-17.949282
 11
-76.767063
 21
-17.949278
 39
0.006944
 62
1
  0
LINE
  8
ADA_Sink_3D
 10
-76.767063
 20
-17.949282
 11
-76.607458
 21
-17.929033
 39
0.006944
 62
1
  0
LINE
  8
ADA_Sink_3D
 10
-76.774770
 20
-17.926475
 11
-76.767061
 21
-17.949282
 39
0.006944
 62
1
  0
LINE
  8
ADA_Sink_3D
 10
-76.198836
 20
-18.487982
 11
-76.054592
 21
-18.366685
 39
0.006944
 62
1
  0
LINE
  8
ADA_Sink_3D
 10
-76.054592
 20
-18.366685
 11
-76.198836
 21
-18.487982
 39
0.006944
 62
1
  0
LINE
  8
ADA_Sink_3D
 10
-76.198836
 20
-18.487982
 11
-76.054592
 21
-18.366685
 39
0.006944
 62
1
  0
LINE
  8
ADA_Sink_3D
 10
-55.485292
 20
-15.651668
 11
-76.054592
 21
-18.366685
 39
0.006944
 62
1
  0
LINE
  8
ADA_Sink_3D
 10
-76.198836
 20
-18.487982
 11
-55.458148
 21
-15.729004
 39
0.006944
 62
1
  0
LINE
  8
ADA_Sink_3D
 10
-76.054592
 20
-18.366685
 11
-55.485292
 21
-15.651668
 39
0.006944
 62
1
  0
LINE
  8
ADA_Sink_3D
 10
-76.054592
 20
-18.366685
 11
-55.485292
 21
-15.651668
 39
0.006944
 62
1
  0
LINE
  8
ADA_Sink_3D
 10
-48.473461
 20
-0.104358
 11
-55.485292
 21
-15.651668
 39
0.006944
 62
1
  0
LINE
  8
ADA_Sink_3D
 10
-55.458148
 20
-15.729004
 11
-48.364818
 21
-0.010597
 39
0.006944
 62
1
  0
LINE
  8
ADA_Sink_3D
 10
-55.485292
 20
-15.651668
 11
-48.473461
 21
-0.104358
 39
0.006944
 62
1
  0
LINE
  8
ADA_Sink_3D
 10
-55.485292
 20
-15.651668
 11
-48.473461
 21
-0.104358
 39
0.006944
 62
1
  0
LINE
  8
ADA_Sink_3D
 10
-55.485292
 20
-15.651668
 11
-55.458148
 21
-15.729004
 39
0.006944
 62
1
  0
LINE
  8
ADA_Sink_3D
 10
-55.458148
 20
-15.729004
 11
-55.485292
 21
-15.651668
 39
0.006944
 62
1
  0
LINE
  8
ADA_Sink_3D
 10
-55.458148
 20
-15.729004
 11
-55.485292
 21
-15.651668
 39
0.006944
 62
1
  0
LINE
  8
ADA_Sink_3D
 10
-13.462658
 20
11.686911
 11
-31.329788
 21
5.767431
 39
0.006944
 62
1
  0
LINE
  8
ADA_Sink_3D
 10
-13.000442
 20
11.505398
 11
-13.462658
 21
11.686911
 39
0.006944
 62
1
  0
LINE
  8
ADA_Sink_3D
 10
-13.511554
 20
11.334578
 11
-13.511377
 21
11.317244
 39
0.006944
 62
1
  0
LINE
  8
ADA_Sink_3D
 10
-13.000442
 20
11.505398
 11
-13.511554
 21
11.334578
 39
0.006944
 62
1
  0
LINE
  8
ADA_Sink_3D
 10
-13.000442
 20
11.505400
 11
-13.511552
 21
11.334578
 39
0.006944
 62
1
  0
LINE
  8
ADA_Sink_3D
 10
-13.511552
 20
11.334578
 11
-13.000442
 21
11.505400
 39
0.006944
 62
1
  0
LINE
  8
ADA_Sink_3D
 10
-13.511377
 20
11.317244
 11
-13.476937
 21
7.940479
 39
0.006944
 62
1
  0
LINE
  8
ADA_Sink_3D
 10
-30.217506
 20
5.751166
 11
-30.893646
 21
5.525188
 39
0.006944
 62
1
  0
LINE
  8
ADA_Sink_3D
 10
-30.217504
 20
5.751167
 11
-30.893646
 21
5.525189
 39
0.006944
 62
1
  0
LINE
  8
ADA_Sink_3D
 10
-30.893646
 20
5.525188
 11
-31.329788
 21
5.767431
 39
0.006944
 62
1
  0
LINE
  8
ADA_Sink_3D
 10
-31.329788
 20
5.767431
 11
-30.893646
 21
5.525188
 39
0.006944
 62
1
  0
LINE
  8
ADA_Sink_3D
 10
-30.893646
 20
5.525189
 11
-30.217504
 21
5.751167
 39
0.006944
 62
1
  0
LINE
  8
ADA_Sink_3D
 10
-31.329788
 20
5.767430
 11
-31.286647
 21
5.421468
 39
0.006944
 62
1
  0
LINE
  8
ADA_Sink_3D
 10
-30.893646
 20
5.525188
 11
-31.329788
 21
5.767431
 39
0.006944
 62
1
  0
LINE
  8
ADA_Sink_3D
 10
-31.974002
 20
5.090124
 11
-32.057144
 21
5.243908
 39
0.006944
 62
1
  0
LINE
  8
ADA_Sink_3D
 10
-32.057144
 20
5.243908
 11
-31.974002
 21
5.090124
 39
0.006944
 62
1
  0
LINE
  8
ADA_Sink_3D
 10
-31.375499
 20
5.471178
 11
-32.057144
 21
5.243908
 39
0.006944
 62
1
  0
LINE
  8
ADA_Sink_3D
 10
-32.057144
 20
5.243908
 11
-31.974002
 21
5.090124
 39
0.006944
 62
1
  0
LINE
  8
ADA_Sink_3D
 10
-31.375499
 20
5.471178
 11
-32.057144
 21
5.243908
 39
0.006944
 62
1
  0
LINE
  8
ADA_Sink_3D
 10
-30.893646
 20
5.525189
 11
-30.851240
 21
5.177871
 39
0.006944
 62
1
  0
LINE
  8
ADA_Sink_3D
 10
-30.893646
 20
5.525189
 11
-30.851240
 21
5.177870
 39
0.006944
 62
1
  0
LINE
  8
ADA_Sink_3D
 10
-30.851240
 20
5.177870
 11
-30.893646
 21
5.525189
 39
0.006944
 62
1
  0
LINE
  8
ADA_Sink_3D
 10
-31.606901
 20
2.252876
 11
-31.974002
 21
5.090124
 39
0.006944
 62
1
  0
LINE
  8
ADA_Sink_3D
 10
-32.057144
 20
5.243908
 11
-31.659816
 21
2.182680
 39
0.006944
 62
1
  0
LINE
  8
ADA_Sink_3D
 10
-31.974002
 20
5.090124
 11
-31.606901
 21
2.252876
 39
0.006944
 62
1
  0
LINE
  8
ADA_Sink_3D
 10
-31.974002
 20
5.090124
 11
-31.606901
 21
2.252876
 39
0.006944
 62
1
  0
LINE
  8
ADA_Sink_3D
 10
-31.659816
 20
2.182680
 11
-31.606901
 21
2.252876
 39
0.006944
 62
1
  0
LINE
  8
ADA_Sink_3D
 10
-31.606901
 20
2.252876
 11
-31.659816
 21
2.182680
 39
0.006944
 62
1
  0
LINE
  8
ADA_Sink_3D
 10
-31.606901
 20
2.252876
 11
-31.659816
 21
2.182680
 39
0.006944
 62
1
  0
LINE
  8
ADA_Sink_3D
 10
-24.384621
 20
2.759465
 11
-24.512782
 21
2.625211
 39
0.006944
 62
1
  0
LINE
  8
ADA_Sink_3D
 10
-24.384621
 20
2.759465
 11
-24.512782
 21
2.625211
 39
0.006944
 62
1
  0
LINE
  8
ADA_Sink_3D
 10
-13.511374
 20
11.317244
 11
-30.194940
 21
5.738804
 39
0.006944
 62
1
  0
LINE
  8
ADA_Sink_3D
 10
-13.511552
 20
11.334578
 11
-30.217504
 21
5.751167
 39
0.006944
 62
1
  0
LINE
  8
ADA_Sink_3D
 10
-30.194940
 20
5.738804
 11
-13.511374
 21
11.317244
 39
0.006944
 62
1
  0
LINE
  8
ADA_Sink_3D
 10
-30.217504
 20
5.751167
 11
-13.511552
 21
11.334578
 39
0.006944
 62
1
  0
LINE
  8
ADA_Sink_3D
 10
-30.194940
 20
5.738804
 11
-13.511374
 21
11.317244
 39
0.006944
 62
1
  0
LINE
  8
ADA_Sink_3D
 10
-13.476937
 20
7.940479
 11
-11.972299
 21
7.291617
 39
0.006944
 62
1
  0
LINE
  8
ADA_Sink_3D
 10
-24.735144
 20
2.747058
 11
-23.852741
 21
2.824003
 39
0.006944
 62
1
  0
LINE
  8
ADA_Sink_3D
 10
-23.852741
 20
2.824003
 11
-23.647154
 21
2.536699
 39
0.006944
 62
1
  0
LINE
  8
ADA_Sink_3D
 10
-24.706467
 20
2.731343
 11
-23.861897
 21
2.805136
 39
0.006944
 62
1
  0
LINE
  8
ADA_Sink_3D
 10
-23.861896
 20
2.805136
 11
-23.852741
 21
2.824003
 39
0.006944
 62
1
  0
LINE
  8
ADA_Sink_3D
 10
-23.852741
 20
2.824003
 11
-24.735144
 21
2.747059
 39
0.006944
 62
1
  0
LINE
  8
ADA_Sink_3D
 10
-24.735144
 20
2.747058
 11
-23.852741
 21
2.824003
 39
0.006944
 62
1
  0
LINE
  8
ADA_Sink_3D
 10
-23.861896
 20
2.805136
 11
-23.852741
 21
2.824003
 39
0.006944
 62
1
  0
LINE
  8
ADA_Sink_3D
 10
-23.861897
 20
2.805136
 11
-23.684113
 21
2.556784
 39
0.006944
 62
1
  0
LINE
  8
ADA_Sink_3D
 10
-23.647154
 20
2.536697
 11
-23.852741
 21
2.824003
 39
0.006944
 62
1
  0
LINE
  8
ADA_Sink_3D
 10
-23.852741
 20
2.824003
 11
-23.861896
 21
2.805136
 39
0.006944
 62
1
  0
LINE
  8
ADA_Sink_3D
 10
-23.684110
 20
2.556783
 11
-23.861897
 21
2.805136
 39
0.006944
 62
1
  0
LINE
  8
ADA_Sink_3D
 10
-23.647154
 20
2.536697
 11
-23.852741
 21
2.824003
 39
0.006944
 62
1
  0
LINE
  8
ADA_Sink_3D
 10
-22.105388
 20
2.717406
 11
-22.764991
 21
2.057214
 39
0.006944
 62
1
  0
LINE
  8
ADA_Sink_3D
 10
-21.581522
 20
2.438682
 11
-22.105388
 21
2.717406
 39
0.006944
 62
1
  0
LINE
  8
ADA_Sink_3D
 10
-22.243490
 20
1.773759
 11
-21.581521
 21
2.438681
 39
0.006944
 62
1
  0
LINE
  8
ADA_Sink_3D
 10
-21.581521
 20
2.438681
 11
-22.243490
 21
1.773761
 39
0.006944
 62
1
  0
LINE
  8
ADA_Sink_3D
 10
-20.805453
 20
1.200444
 11
-21.581522
 21
2.438682
 39
0.006944
 62
1
  0
LINE
  8
ADA_Sink_3D
 10
-12.896307
 20
-3.306744
 11
-12.973854
 21
7.723531
 39
0.006944
 62
1
  0
LINE
  8
ADA_Sink_3D
 10
-20.939237
 20
1.064856
 11
-20.805452
 21
1.200443
 39
0.006944
 62
1
  0
LINE
  8
ADA_Sink_3D
 10
-30.893646
 20
5.525188
 11
-10.207213
 21
-5.964492
 39
0.006944
 62
1
  0
LINE
  8
ADA_Sink_3D
 10
-10.207213
 20
-5.964492
 11
-30.893646
 21
5.525188
 39
0.006944
 62
1
  0
LINE
  8
ADA_Sink_3D
 10
-9.489579
 20
-5.606885
 11
-30.217506
 21
5.751166
 39
0.006944
 62
1
  0
LINE
  8
ADA_Sink_3D
 10
-9.689104
 20
-6.661692
 11
-31.375499
 21
5.471178
 39
0.006944
 62
1
  0
LINE
  8
ADA_Sink_3D
 10
-31.974002
 20
5.090124
 11
-10.528622
 21
-7.102607
 39
0.006944
 62
1
  0
LINE
  8
ADA_Sink_3D
 10
-10.416679
 20
-7.030475
 11
-32.057144
 21
5.243908
 39
0.006944
 62
1
  0
LINE
  8
ADA_Sink_3D
 10
-32.057144
 20
5.243908
 11
-10.416679
 21
-7.030475
 39
0.006944
 62
1
  0
LINE
  8
ADA_Sink_3D
 10
-31.974002
 20
5.090124
 11
-10.528622
 21
-7.102607
 39
0.006944
 62
1
  0
LINE
  8
ADA_Sink_3D
 10
-10.528622
 20
-7.102607
 11
-31.974002
 21
5.090124
 39
0.006944
 62
1
  0
LINE
  8
ADA_Sink_3D
 10
-9.059115
 20
-5.392385
 11
-24.102375
 21
2.784127
 39
0.006944
 62
1
  0
LINE
  8
ADA_Sink_3D
 10
-10.559440
 20
-10.411979
 11
-31.606901
 21
2.252876
 39
0.006944
 62
1
  0
LINE
  8
ADA_Sink_3D
 10
-31.659816
 20
2.182680
 11
-10.452743
 21
-10.605552
 39
0.006944
 62
1
  0
LINE
  8
ADA_Sink_3D
 10
-31.606901
 20
2.252876
 11
-10.559440
 21
-10.411979
 39
0.006944
 62
1
  0
LINE
  8
ADA_Sink_3D
 10
-31.606901
 20
2.252876
 11
-10.559440
 21
-10.411979
 39
0.006944
 62
1
  0
LINE
  8
ADA_Sink_3D
 10
-11.470943
 20
7.479233
 11
-11.070153
 21
8.615866
 39
0.006944
 62
1
  0
LINE
  8
ADA_Sink_3D
 10
-11.456006
 20
8.775634
 11
-11.972299
 21
7.291617
 39
0.006944
 62
1
  0
LINE
  8
ADA_Sink_3D
 10
-11.972299
 20
7.291617
 11
-11.456006
 21
8.775634
 39
0.006944
 62
1
  0
LINE
  8
ADA_Sink_3D
 10
-11.972299
 20
7.291617
 11
-11.470945
 21
7.479234
 39
0.006944
 62
1
  0
LINE
  8
ADA_Sink_3D
 10
7.660823
 20
2.939372
 11
-13.511554
 21
11.334578
 39
0.006944
 62
1
  0
LINE
  8
ADA_Sink_3D
 10
-13.511377
 20
11.317244
 11
7.637349
 21
2.927666
 39
0.006944
 62
1
  0
LINE
  8
ADA_Sink_3D
 10
-13.511554
 20
11.334578
 11
7.660823
 21
2.939372
 39
0.006944
 62
1
  0
LINE
  8
ADA_Sink_3D
 10
-13.511377
 20
11.317244
 11
7.637349
 21
2.927666
 39
0.006944
 62
1
  0
LINE
  8
ADA_Sink_3D
 10
7.637349
 20
2.927666
 11
-13.511377
 21
11.317244
 39
0.006944
 62
1
  0
LINE
  8
ADA_Sink_3D
 10
8.168526
 20
3.192362
 11
-13.000442
 21
11.505398
 39
0.006944
 62
1
  0
LINE
  8
ADA_Sink_3D
 10
-11.456006
 20
8.775634
 11
4.535094
 21
2.154264
 39
0.006944
 62
1
  0
LINE
  8
ADA_Sink_3D
 10
4.535094
 20
2.154264
 11
4.690871
 21
1.459400
 39
0.006944
 62
1
  0
LINE
  8
ADA_Sink_3D
 10
8.168526
 20
3.192362
 11
7.660823
 21
2.939372
 39
0.006944
 62
1
  0
LINE
  8
ADA_Sink_3D
 10
7.660823
 20
2.939372
 11
8.168526
 21
3.192362
 39
0.006944
 62
1
  0
LINE
  8
ADA_Sink_3D
 10
8.168526
 20
3.192362
 11
7.660813
 21
2.939362
 39
0.006944
 62
1
  0
LINE
  8
ADA_Sink_3D
 10
7.660821
 20
2.939368
 11
7.660821
 21
2.939360
 39
0.006944
 62
1
  0
LINE
  8
ADA_Sink_3D
 10
7.660821
 20
2.939372
 11
7.660821
 21
2.939368
 39
0.006944
 62
1
  0
LINE
  8
ADA_Sink_3D
 10
7.660821
 20
2.939360
 11
7.660821
 21
2.939372
 39
0.006944
 62
1
  0
LINE
  8
ADA_Sink_3D
 10
8.859658
 20
2.920955
 11
8.168526
 21
3.192362
 39
0.006944
 62
1
  0
LINE
  8
ADA_Sink_3D
 10
7.660813
 20
2.939362
 11
-9.489580
 21
-5.606887
 39
0.006944
 62
1
  0
LINE
  8
ADA_Sink_3D
 10
-9.488478
 20
-6.343528
 11
8.859658
 21
2.920955
 39
0.006944
 62
1
  0
LINE
  8
ADA_Sink_3D
 10
8.859658
 20
2.920955
 11
-9.488478
 21
-6.343528
 39
0.006944
 62
1
  0
LINE
  8
ADA_Sink_3D
 10
-10.188203
 20
-5.955020
 11
-9.489580
 21
-5.606885
 39
0.006944
 62
1
  0
LINE
  8
ADA_Sink_3D
 10
-9.489580
 20
-5.606885
 11
-10.188203
 21
-5.955020
 39
0.006944
 62
1
  0
LINE
  8
ADA_Sink_3D
 10
-9.489580
 20
-5.606887
 11
-10.188203
 21
-5.955021
 39
0.006944
 62
1
  0
LINE
  8
ADA_Sink_3D
 10
-10.207211
 20
-5.964491
 11
-10.188203
 21
-5.955020
 39
0.006944
 62
1
  0
LINE
  8
ADA_Sink_3D
 10
-10.207211
 20
-5.964491
 11
-10.211853
 21
-6.369231
 39
0.006944
 62
1
  0
LINE
  8
ADA_Sink_3D
 10
-10.188203
 20
-5.955020
 11
-10.207211
 21
-5.964491
 39
0.006944
 62
1
  0
LINE
  8
ADA_Sink_3D
 10
-10.211853
 20
-6.369231
 11
-10.207211
 21
-5.964491
 39
0.006944
 62
1
  0
LINE
  8
ADA_Sink_3D
 10
-9.488478
 20
-6.343528
 11
-10.188201
 21
-5.955021
 39
0.006944
 62
1
  0
LINE
  8
ADA_Sink_3D
 10
-10.188201
 20
-5.955021
 11
-10.207213
 21
-5.964492
 39
0.006944
 62
1
  0
LINE
  8
ADA_Sink_3D
 10
-10.207213
 20
-5.964492
 11
-9.507493
 21
-6.353128
 39
0.006944
 62
1
  0
LINE
  8
ADA_Sink_3D
 10
-9.507493
 20
-6.353128
 11
-10.207213
 21
-5.964492
 39
0.006944
 62
1
  0
LINE
  8
ADA_Sink_3D
 10
-10.207211
 20
-5.964491
 11
-10.211853
 21
-6.369235
 39
0.006944
 62
1
  0
LINE
  8
ADA_Sink_3D
 10
-9.488478
 20
-6.343528
 11
-10.188201
 21
-5.955021
 39
0.006944
 62
1
  0
LINE
  8
ADA_Sink_3D
 10
-10.188201
 20
-5.955021
 11
-9.488478
 21
-6.343528
 39
0.006944
 62
1
  0
LINE
  8
ADA_Sink_3D
 10
-16.885168
 20
-8.387164
 11
-19.045729
 21
-5.423831
 39
0.006944
 62
1
  0
LINE
  8
ADA_Sink_3D
 10
-19.111299
 20
-5.384290
 11
-16.909839
 21
-8.401520
 39
0.006944
 62
1
  0
LINE
  8
ADA_Sink_3D
 10
-19.045729
 20
-5.423833
 11
-16.885168
 21
-8.387164
 39
0.006944
 62
1
  0
LINE
  8
ADA_Sink_3D
 10
-19.045729
 20
-5.423833
 11
-16.885168
 21
-8.387164
 39
0.006944
 62
1
  0
LINE
  8
ADA_Sink_3D
 10
-16.909839
 20
-8.401521
 11
-16.885168
 21
-8.387166
 39
0.006944
 62
1
  0
LINE
  8
ADA_Sink_3D
 10
-16.885171
 20
-8.387168
 11
-16.909839
 21
-8.401520
 39
0.006944
 62
1
  0
LINE
  8
ADA_Sink_3D
 10
-16.885168
 20
-8.387164
 11
-16.885171
 21
-8.387168
 39
0.006944
 62
1
  0
LINE
  8
ADA_Sink_3D
 10
-16.909839
 20
-8.401521
 11
-16.885168
 21
-8.387166
 39
0.006944
 62
1
  0
LINE
  8
ADA_Sink_3D
 10
-10.528611
 20
-7.102597
 11
-10.416679
 21
-7.030474
 39
0.006944
 62
1
  0
LINE
  8
ADA_Sink_3D
 10
-10.528623
 20
-7.102608
 11
-10.528611
 21
-7.102597
 39
0.006944
 62
1
  0
LINE
  8
ADA_Sink_3D
 10
-10.416679
 20
-7.030475
 11
-10.528622
 21
-7.102607
 39
0.006944
 62
1
  0
LINE
  8
ADA_Sink_3D
 10
-10.416679
 20
-7.030475
 11
-10.528622
 21
-7.102607
 39
0.006944
 62
1
  0
LINE
  8
ADA_Sink_3D
 10
-9.488478
 20
-6.343528
 11
-9.507493
 21
-6.353128
 39
0.006944
 62
1
  0
LINE
  8
ADA_Sink_3D
 10
-9.507493
 20
-6.353128
 11
-9.488478
 21
-6.343528
 39
0.006944
 62
1
  0
LINE
  8
ADA_Sink_3D
 10
-9.689104
 20
-6.661692
 11
-10.416679
 21
-7.030475
 39
0.006944
 62
1
  0
LINE
  8
ADA_Sink_3D
 10
-10.416679
 20
-7.030475
 11
-9.689104
 21
-6.661692
 39
0.006944
 62
1
  0
LINE
  8
ADA_Sink_3D
 10
-9.689104
 20
-6.661692
 11
-10.416679
 21
-7.030475
 39
0.006944
 62
1
  0
LINE
  8
ADA_Sink_3D
 10
-10.528622
 20
-7.102607
 11
-10.559440
 21
-10.411979
 39
0.006944
 62
1
  0
LINE
  8
ADA_Sink_3D
 10
-10.452743
 20
-10.605552
 11
-10.416679
 21
-7.030475
 39
0.006944
 62
1
  0
LINE
  8
ADA_Sink_3D
 10
-10.416679
 20
-7.030475
 11
-10.452743
 21
-10.605552
 39
0.006944
 62
1
  0
LINE
  8
ADA_Sink_3D
 10
-10.528622
 20
-7.102607
 11
-10.559440
 21
-10.411979
 39
0.006944
 62
1
  0
LINE
  8
ADA_Sink_3D
 10
-10.559440
 20
-10.411979
 11
-10.528622
 21
-7.102607
 39
0.006944
 62
1
  0
LINE
  8
ADA_Sink_3D
 10
-9.742983
 20
-10.223329
 11
-9.689104
 21
-6.661692
 39
0.006944
 62
1
  0
LINE
  8
ADA_Sink_3D
 10
-9.507493
 20
-6.353128
 11
-9.570318
 21
-10.194641
 39
0.006944
 62
1
  0
LINE
  8
ADA_Sink_3D
 10
-9.570318
 20
-10.194641
 11
-9.507493
 21
-6.353128
 39
0.006944
 62
1
  0
LINE
  8
ADA_Sink_3D
 10
-9.551530
 20
-10.168094
 11
-9.488478
 21
-6.343528
 39
0.006944
 62
1
  0
LINE
  8
ADA_Sink_3D
 10
-9.551530
 20
-10.168094
 11
-9.488478
 21
-6.343528
 39
0.006944
 62
1
  0
LINE
  8
ADA_Sink_3D
 10
-9.488478
 20
-6.343528
 11
-9.551530
 21
-10.168094
 39
0.006944
 62
1
  0
LINE
  8
ADA_Sink_3D
 10
-2.884398
 20
-8.530659
 11
-9.551530
 21
-10.168094
 39
0.006944
 62
1
  0
LINE
  8
ADA_Sink_3D
 10
-9.570318
 20
-10.194641
 11
-2.896177
 21
-8.553855
 39
0.006944
 62
1
  0
LINE
  8
ADA_Sink_3D
 10
-9.551530
 20
-10.168094
 11
-2.884398
 21
-8.530659
 39
0.006944
 62
1
  0
LINE
  8
ADA_Sink_3D
 10
-9.551530
 20
-10.168094
 11
-2.884398
 21
-8.530659
 39
0.006944
 62
1
  0
LINE
  8
ADA_Sink_3D
 10
-2.984049
 20
-8.694385
 11
-3.134709
 21
-8.612495
 39
0.006944
 62
1
  0
LINE
  8
ADA_Sink_3D
 10
-2.884405
 20
-8.530663
 11
-2.896177
 21
-8.553855
 39
0.006944
 62
1
  0
LINE
  8
ADA_Sink_3D
 10
-2.884400
 20
-8.530659
 11
-2.884405
 21
-8.530663
 39
0.006944
 62
1
  0
LINE
  8
ADA_Sink_3D
 10
-2.896177
 20
-8.553855
 11
-2.884398
 21
-8.530659
 39
0.006944
 62
1
  0
LINE
  8
ADA_Sink_3D
 10
-2.896177
 20
-8.553855
 11
-2.884398
 21
-8.530659
 39
0.006944
 62
1
  0
LINE
  8
ADA_Sink_3D
 10
-3.542967
 20
-9.364199
 11
-2.984049
 21
-8.694386
 39
0.006944
 62
1
  0
LINE
  8
ADA_Sink_3D
 10
-3.542967
 20
-9.364199
 11
-2.984049
 21
-8.694386
 39
0.006944
 62
1
  0
LINE
  8
ADA_Sink_3D
 10
-2.984049
 20
-8.694386
 11
-3.542967
 21
-9.364199
 39
0.006944
 62
1
  0
LINE
  8
ADA_Sink_3D
 10
-4.426329
 20
-8.930033
 11
-3.607670
 21
-9.382843
 39
0.006944
 62
1
  0
LINE
  8
ADA_Sink_3D
 10
-3.607668
 20
-9.382843
 11
-3.542967
 21
-9.364199
 39
0.006944
 62
1
  0
LINE
  8
ADA_Sink_3D
 10
-3.542966
 20
-9.364200
 11
-4.358716
 21
-8.913410
 39
0.006944
 62
1
  0
LINE
  8
ADA_Sink_3D
 10
-4.358716
 20
-8.913410
 11
-3.542966
 21
-9.364200
 39
0.006944
 62
1
  0
LINE
  8
ADA_Sink_3D
 10
-3.542967
 20
-9.364199
 11
-3.607668
 21
-9.382843
 39
0.006944
 62
1
  0
LINE
  8
ADA_Sink_3D
 10
-3.607668
 20
-9.382843
 11
-3.542967
 21
-9.364199
 39
0.006944
 62
1
  0
LINE
  8
ADA_Sink_3D
 10
-4.426329
 20
-8.930033
 11
-3.607670
 21
-9.382843
 39
0.006944
 62
1
  0
LINE
  8
ADA_Sink_3D
 10
-3.607670
 20
-9.382843
 11
-4.426329
 21
-8.930029
 39
0.006944
 62
1
  0
LINE
  8
ADA_Sink_3D
 10
-10.559440
 20
-10.411979
 11
-10.452743
 21
-10.605552
 39
0.006944
 62
1
  0
LINE
  8
ADA_Sink_3D
 10
-10.452743
 20
-10.605552
 11
-10.559440
 21
-10.411979
 39
0.006944
 62
1
  0
LINE
  8
ADA_Sink_3D
 10
-10.559440
 20
-10.411979
 11
-10.452743
 21
-10.605552
 39
0.006944
 62
1
  0
LINE
  8
ADA_Sink_3D
 10
-10.452743
 20
-10.605552
 11
-9.742983
 21
-10.223329
 39
0.006944
 62
1
  0
LINE
  8
ADA_Sink_3D
 10
-10.452743
 20
-10.605552
 11
-9.742983
 21
-10.223329
 39
0.006944
 62
1
  0
LINE
  8
ADA_Sink_3D
 10
-9.551529
 20
-10.168098
 11
-9.570317
 21
-10.194641
 39
0.006944
 62
1
  0
LINE
  8
ADA_Sink_3D
 10
-9.551529
 20
-10.168094
 11
-9.551529
 21
-10.168098
 39
0.006944
 62
1
  0
LINE
  8
ADA_Sink_3D
 10
-9.570318
 20
-10.194641
 11
-9.551530
 21
-10.168094
 39
0.006944
 62
1
  0
LINE
  8
ADA_Sink_3D
 10
-9.741011
 20
-10.093300
 11
-9.570317
 21
-10.194641
 39
0.006944
 62
1
  0
LINE
  8
ADA_Sink_3D
 10
-9.570318
 20
-10.194641
 11
-9.551530
 21
-10.168094
 39
0.006944
 62
1
  0
LINE
  8
ADA_Sink_3D
 10
-9.741011
 20
-10.093300
 11
-9.570317
 21
-10.194641
 39
0.006944
 62
1
  0
LINE
  8
ADA_Sink_3D
 10
6.104998
 20
-17.453335
 11
8.859658
 21
2.920955
 39
0.006944
 62
1
  0
LINE
  8
ADA_Sink_3D
 10
2.214845
 20
-20.242411
 11
-16.885168
 21
-8.387166
 39
0.006944
 62
1
  0
LINE
  8
ADA_Sink_3D
 10
-16.909839
 20
-8.401521
 11
2.336625
 21
-20.353742
 39
0.006944
 62
1
  0
LINE
  8
ADA_Sink_3D
 10
-16.885168
 20
-8.387166
 11
2.214845
 21
-20.242411
 39
0.006944
 62
1
  0
LINE
  8
ADA_Sink_3D
 10
-16.885168
 20
-8.387166
 11
2.214845
 21
-20.242411
 39
0.006944
 62
1
  0
LINE
  8
ADA_Sink_3D
 10
2.789206
 20
-19.774120
 11
-2.984049
 21
-8.694386
 39
0.006944
 62
1
  0
LINE
  8
ADA_Sink_3D
 10
2.922512
 20
-19.690634
 11
-2.884398
 21
-8.530659
 39
0.006944
 62
1
  0
LINE
  8
ADA_Sink_3D
 10
-2.896177
 20
-8.553855
 11
2.913372
 21
-19.711126
 39
0.006944
 62
1
  0
LINE
  8
ADA_Sink_3D
 10
2.913372
 20
-19.711126
 11
-2.896177
 21
-8.553855
 39
0.006944
 62
1
  0
LINE
  8
ADA_Sink_3D
 10
2.922512
 20
-19.690634
 11
-2.884398
 21
-8.530659
 39
0.006944
 62
1
  0
LINE
  8
ADA_Sink_3D
 10
-2.884398
 20
-8.530659
 11
2.922512
 21
-19.690634
 39
0.006944
 62
1
  0
LINE
  8
ADA_Sink_3D
 10
-3.607668
 20
-9.382843
 11
2.214845
 21
-20.242411
 39
0.006944
 62
1
  0
LINE
  8
ADA_Sink_3D
 10
2.336625
 20
-20.353742
 11
-3.542967
 21
-9.364199
 39
0.006944
 62
1
  0
LINE
  8
ADA_Sink_3D
 10
-3.542967
 20
-9.364199
 11
2.336625
 21
-20.353742
 39
0.006944
 62
1
  0
LINE
  8
ADA_Sink_3D
 10
-3.607668
 20
-9.382843
 11
2.214845
 21
-20.242411
 39
0.006944
 62
1
  0
LINE
  8
ADA_Sink_3D
 10
2.214845
 20
-20.242411
 11
-3.607668
 21
-9.382843
 39
0.006944
 62
1
  0
LINE
  8
ADA_Sink_3D
 10
6.102961
 20
-17.468379
 11
6.104998
 21
-17.453335
 39
0.006944
 62
1
  0
LINE
  8
ADA_Sink_3D
 10
6.104998
 20
-17.453335
 11
2.922512
 21
-19.690634
 39
0.006944
 62
1
  0
LINE
  8
ADA_Sink_3D
 10
2.913372
 20
-19.711126
 11
6.102961
 21
-17.468379
 39
0.006944
 62
1
  0
LINE
  8
ADA_Sink_3D
 10
2.922512
 20
-19.690634
 11
6.104998
 21
-17.453335
 39
0.006944
 62
1
  0
LINE
  8
ADA_Sink_3D
 10
2.922512
 20
-19.690634
 11
6.104998
 21
-17.453335
 39
0.006944
 62
1
  0
LINE
  8
ADA_Sink_3D
 10
2.922512
 20
-19.690634
 11
2.913372
 21
-19.711126
 39
0.006944
 62
1
  0
LINE
  8
ADA_Sink_3D
 10
2.913372
 20
-19.711122
 11
2.922513
 21
-19.690633
 39
0.006944
 62
1
  0
LINE
  8
ADA_Sink_3D
 10
2.913372
 20
-19.711126
 11
2.913372
 21
-19.711122
 39
0.006944
 62
1
  0
LINE
  8
ADA_Sink_3D
 10
2.682841
 20
-19.569995
 11
2.913372
 21
-19.711126
 39
0.006944
 62
1
  0
LINE
  8
ADA_Sink_3D
 10
2.913372
 20
-19.711122
 11
2.922513
 21
-19.690633
 39
0.006944
 62
1
  0
LINE
  8
ADA_Sink_3D
 10
2.913372
 20
-19.711126
 11
2.913372
 21
-19.711122
 39
0.006944
 62
1
  0
LINE
  8
ADA_Sink_3D
 10
2.682841
 20
-19.569995
 11
2.913372
 21
-19.711126
 39
0.006944
 62
1
  0
LINE
  8
ADA_Sink_3D
 10
2.214845
 20
-20.242411
 11
2.336625
 21
-20.353742
 39
0.006944
 62
1
  0
LINE
  8
ADA_Sink_3D
 10
2.336625
 20
-20.353742
 11
2.789206
 21
-19.774120
 39
0.006944
 62
1
  0
LINE
  8
ADA_Sink_3D
 10
2.336625
 20
-20.353742
 11
2.214845
 21
-20.242411
 39
0.006944
 62
1
  0
LINE
  8
ADA_Sink_3D
 10
2.336625
 20
-20.353742
 11
2.789206
 21
-19.774120
 39
0.006944
 62
1
  0
LINE
  8
ADA_Sink_3D
 10
2.214845
 20
-20.242411
 11
2.336625
 21
-20.353742
 39
0.006944
 62
1
  0
LINE
  8
ADA_Sink_Front
 10
-73.884051
 20
50.995472
 11
-73.884051
 21
50.975472
 39
0.006944
 62
1
  0
LINE
  8
ADA_Sink_Front
 10
-73.124051
 20
50.995472
 11
-73.884051
 21
50.995472
 39
0.006944
 62
1
  0
LINE
  8
ADA_Sink_Front
 10
-73.124051
 20
50.995472
 11
-73.884051
 21
50.995472
 39
0.006944
 62
1
  0
LINE
  8
ADA_Sink_Front
 10
-73.701052
 20
50.625473
 11
-73.821052
 21
50.745472
 39
0.006944
 62
1
  0
LINE
  8
ADA_Sink_Front
 10
-73.821052
 20
50.745472
 11
-73.701052
 21
50.625473
 39
0.006944
 62
1
  0
LINE
  8
ADA_Sink_Front
 10
-73.124051
 20
50.995472
 11
-73.124051
 21
50.745472
 39
0.006944
 62
1
  0
LINE
  8
ADA_Sink_Front
 10
-73.124051
 20
50.995472
 11
-73.124051
 21
50.745472
 39
0.006944
 62
1
  0
LINE
  8
ADA_Sink_Front
 10
-73.124051
 20
50.745472
 11
-73.124051
 21
50.995472
 39
0.006944
 62
1
  0
LINE
  8
ADA_Sink_Front
 10
-44.644051
 20
50.995472
 11
-73.124051
 21
50.995472
 39
0.006944
 62
1
  0
LINE
  8
ADA_Sink_Front
 10
-44.644051
 20
50.995472
 11
-73.124051
 21
50.995472
 39
0.006944
 62
1
  0
LINE
  8
ADA_Sink_Front
 10
-44.644051
 20
50.995472
 11
-73.124051
 21
50.995472
 39
0.006944
 62
1
  0
LINE
  8
ADA_Sink_Front
 10
-73.701052
 20
50.625473
 11
-44.067053
 21
50.625473
 39
0.006944
 62
1
  0
LINE
  8
ADA_Sink_Front
 10
-43.947052
 20
50.745472
 11
-73.821052
 21
50.745472
 39
0.006944
 62
1
  0
LINE
  8
ADA_Sink_Front
 10
-73.701052
 20
50.625473
 11
-44.067053
 21
50.625473
 39
0.006944
 62
1
  0
LINE
  8
ADA_Sink_Front
 10
-44.067053
 20
50.625473
 11
-73.701052
 21
50.625473
 39
0.006944
 62
1
  0
LINE
  8
ADA_Sink_Front
 10
-73.884051
 20
50.995472
 11
-73.884051
 21
47.489472
 39
0.006944
 62
1
  0
LINE
  8
ADA_Sink_Front
 10
-73.884051
 20
50.975472
 11
-73.884051
 21
47.505002
 39
0.006944
 62
1
  0
LINE
  8
ADA_Sink_Front
 10
-73.821052
 20
50.745472
 11
-73.821052
 21
47.489472
 39
0.006944
 62
1
  0
LINE
  8
ADA_Sink_Front
 10
-73.701052
 20
47.609473
 11
-73.701052
 21
50.625473
 39
0.006944
 62
1
  0
LINE
  8
ADA_Sink_Front
 10
-73.701052
 20
47.609473
 11
-73.701052
 21
50.625473
 39
0.006944
 62
1
  0
LINE
  8
ADA_Sink_Front
 10
-73.701052
 20
50.625473
 11
-73.701052
 21
47.609473
 39
0.006944
 62
1
  0
LINE
  8
ADA_Sink_Front
 10
-73.821052
 20
47.489472
 11
-73.701052
 21
47.609473
 39
0.006944
 62
1
  0
LINE
  8
ADA_Sink_Front
 10
-73.701052
 20
47.609473
 11
-73.821052
 21
47.489472
 39
0.006944
 62
1
  0
LINE
  8
ADA_Sink_Front
 10
-73.884051
 20
47.489472
 11
-73.821052
 21
47.489472
 39
0.006944
 62
1
  0
LINE
  8
ADA_Sink_Front
 10
-73.884051
 20
47.489472
 11
-73.821052
 21
47.489472
 39
0.006944
 62
1
  0
LINE
  8
ADA_Sink_Front
 10
-73.884051
 20
47.505002
 11
-73.884051
 21
47.489472
 39
0.006944
 62
1
  0
LINE
  8
ADA_Sink_Front
 10
-73.821052
 20
47.489472
 11
-73.884051
 21
47.489472
 39
0.006944
 62
1
  0
LINE
  8
ADA_Sink_Front
 10
-73.884051
 20
47.505002
 11
-73.884051
 21
47.489472
 39
0.006944
 62
1
  0
LINE
  8
ADA_Sink_Front
 10
-73.884051
 20
47.489472
 11
-73.884051
 21
45.489472
 39
0.006944
 62
1
  0
LINE
  8
ADA_Sink_Front
 10
-73.884051
 20
47.489472
 11
-73.884051
 21
45.506726
 39
0.006944
 62
1
  0
LINE
  8
ADA_Sink_Front
 10
-73.124051
 20
45.489472
 11
-73.124051
 21
47.489472
 39
0.006944
 62
1
  0
LINE
  8
ADA_Sink_Front
 10
-73.884051
 20
45.506726
 11
-73.884051
 21
45.489472
 39
0.006944
 62
1
  0
LINE
  8
ADA_Sink_Front
 10
-73.884051
 20
45.506726
 11
-73.884051
 21
45.489472
 39
0.006944
 62
1
  0
LINE
  8
ADA_Sink_Front
 10
-73.884051
 20
45.489472
 11
-73.124051
 21
45.489472
 39
0.006944
 62
1
  0
LINE
  8
ADA_Sink_Front
 10
-73.884051
 20
45.489472
 11
-73.124051
 21
45.489472
 39
0.006944
 62
1
  0
LINE
  8
ADA_Sink_Front
 10
-73.124051
 20
45.489472
 11
-73.884051
 21
45.489472
 39
0.006944
 62
1
  0
LINE
  8
ADA_Sink_Front
 10
-73.821052
 20
45.330393
 11
-73.821052
 21
44.959433
 39
0.006944
 62
1
  0
LINE
  8
ADA_Sink_Front
 10
-73.821052
 20
45.330393
 11
-73.821052
 21
44.959433
 39
0.006944
 62
1
  0
LINE
  8
ADA_Sink_Front
 10
-73.701052
 20
44.854699
 11
-73.821052
 21
44.959433
 39
0.006944
 62
1
  0
LINE
  8
ADA_Sink_Front
 10
-73.821052
 20
44.959433
 11
-73.701052
 21
44.854699
 39
0.006944
 62
1
  0
LINE
  8
ADA_Sink_Front
 10
-73.821052
 20
44.959433
 11
-73.701052
 21
44.854699
 39
0.006944
 62
1
  0
LINE
  8
ADA_Sink_Front
 10
-73.124051
 20
45.330393
 11
-73.124051
 21
45.489472
 39
0.006944
 62
1
  0
LINE
  8
ADA_Sink_Front
 10
-73.124051
 20
46.995472
 11
-70.646094
 21
46.995472
 39
0.006944
 62
1
  0
LINE
  8
ADA_Sink_Front
 10
-70.646094
 20
46.995472
 11
-70.442073
 21
47.489472
 39
0.006944
 62
1
  0
LINE
  8
ADA_Sink_Front
 10
-44.067053
 20
47.609473
 11
-73.701052
 21
47.609473
 39
0.006944
 62
1
  0
LINE
  8
ADA_Sink_Front
 10
-44.067053
 20
47.609473
 11
-73.701052
 21
47.609473
 39
0.006944
 62
1
  0
LINE
  8
ADA_Sink_Front
 10
-73.701052
 20
47.609473
 11
-44.067053
 21
47.609473
 39
0.006944
 62
1
  0
LINE
  8
ADA_Sink_Front
 10
-73.821052
 20
47.489472
 11
-43.947052
 21
47.489472
 39
0.006944
 62
1
  0
LINE
  8
ADA_Sink_Front
 10
-43.947052
 20
45.330393
 11
-73.821052
 21
45.330393
 39
0.006944
 62
1
  0
LINE
  8
ADA_Sink_Front
 10
-73.701052
 20
44.854699
 11
-44.067053
 21
44.854699
 39
0.006944
 62
1
  0
LINE
  8
ADA_Sink_Front
 10
-43.947052
 20
44.959433
 11
-73.821052
 21
44.959433
 39
0.006944
 62
1
  0
LINE
  8
ADA_Sink_Front
 10
-73.821052
 20
44.959433
 11
-43.947052
 21
44.959433
 39
0.006944
 62
1
  0
LINE
  8
ADA_Sink_Front
 10
-73.701052
 20
44.854699
 11
-44.067053
 21
44.854699
 39
0.006944
 62
1
  0
LINE
  8
ADA_Sink_Front
 10
-44.067053
 20
44.854699
 11
-73.701052
 21
44.854699
 39
0.006944
 62
1
  0
LINE
  8
ADA_Sink_Front
 10
-43.884051
 20
50.995472
 11
-44.644051
 21
50.995472
 39
0.006944
 62
1
  0
LINE
  8
ADA_Sink_Front
 10
-43.884051
 20
50.995472
 11
-44.644051
 21
50.995472
 39
0.006944
 62
1
  0
LINE
  8
ADA_Sink_Front
 10
-44.644051
 20
50.745472
 11
-44.644051
 21
50.995472
 39
0.006944
 62
1
  0
LINE
  8
ADA_Sink_Front
 10
-44.067053
 20
50.625473
 11
-43.947052
 21
50.745472
 39
0.006944
 62
1
  0
LINE
  8
ADA_Sink_Front
 10
-43.947052
 20
50.745472
 11
-44.067053
 21
50.625473
 39
0.006944
 62
1
  0
LINE
  8
ADA_Sink_Front
 10
-44.067053
 20
50.625473
 11
-44.067053
 21
47.609473
 39
0.006944
 62
1
  0
LINE
  8
ADA_Sink_Front
 10
-44.067053
 20
50.625473
 11
-44.067053
 21
47.609473
 39
0.006944
 62
1
  0
LINE
  8
ADA_Sink_Front
 10
-44.067053
 20
47.609473
 11
-44.067053
 21
50.625473
 39
0.006944
 62
1
  0
LINE
  8
ADA_Sink_Front
 10
-43.884051
 20
47.489472
 11
-43.884051
 21
50.995472
 39
0.006944
 62
1
  0
LINE
  8
ADA_Sink_Front
 10
-43.947052
 20
47.489472
 11
-43.947052
 21
50.745472
 39
0.006944
 62
1
  0
LINE
  8
ADA_Sink_Front
 10
-44.067053
 20
47.609473
 11
-43.947052
 21
47.489472
 39
0.006944
 62
1
  0
LINE
  8
ADA_Sink_Front
 10
-43.947052
 20
47.489472
 11
-44.067053
 21
47.609473
 39
0.006944
 62
1
  0
LINE
  8
ADA_Sink_Front
 10
-47.326029
 20
47.489472
 11
-47.122012
 21
46.995472
 39
0.006944
 62
1
  0
LINE
  8
ADA_Sink_Front
 10
-47.122012
 20
46.995472
 11
-44.644051
 21
46.995472
 39
0.006944
 62
1
  0
LINE
  8
ADA_Sink_Front
 10
-44.644051
 20
46.995472
 11
-44.644051
 21
47.489472
 39
0.006944
 62
1
  0
LINE
  8
ADA_Sink_Front
 10
-43.947052
 20
47.489472
 11
-43.884051
 21
47.489472
 39
0.006944
 62
1
  0
LINE
  8
ADA_Sink_Front
 10
-43.884051
 20
47.489472
 11
-43.947052
 21
47.489472
 39
0.006944
 62
1
  0
LINE
  8
ADA_Sink_Front
 10
-43.947052
 20
47.489472
 11
-43.884051
 21
47.489472
 39
0.006944
 62
1
  0
LINE
  8
ADA_Sink_Front
 10
-44.644051
 20
47.489472
 11
-44.644051
 21
45.489472
 39
0.006944
 62
1
  0
LINE
  8
ADA_Sink_Front
 10
-44.644051
 20
47.489472
 11
-44.644051
 21
45.506726
 39
0.006944
 62
1
  0
LINE
  8
ADA_Sink_Front
 10
-43.884051
 20
45.489472
 11
-43.884051
 21
47.489472
 39
0.006944
 62
1
  0
LINE
  8
ADA_Sink_Front
 10
-44.644051
 20
45.506726
 11
-44.644051
 21
45.489472
 39
0.006944
 62
1
  0
LINE
  8
ADA_Sink_Front
 10
-44.644051
 20
45.506726
 11
-44.644051
 21
45.489472
 39
0.006944
 62
1
  0
LINE
  8
ADA_Sink_Front
 10
-44.644051
 20
45.489472
 11
-43.884051
 21
45.489472
 39
0.006944
 62
1
  0
LINE
  8
ADA_Sink_Front
 10
-43.884051
 20
45.489472
 11
-44.644051
 21
45.489472
 39
0.006944
 62
1
  0
LINE
  8
ADA_Sink_Front
 10
-44.644051
 20
45.489472
 11
-43.884051
 21
45.489472
 39
0.006944
 62
1
  0
LINE
  8
ADA_Sink_Front
 10
-44.644051
 20
45.489472
 11
-44.644051
 21
45.330393
 39
0.006944
 62
1
  0
LINE
  8
ADA_Sink_Front
 10
-44.644051
 20
45.489472
 11
-44.644051
 21
45.330393
 39
0.006944
 62
1
  0
LINE
  8
ADA_Sink_Front
 10
-43.947052
 20
44.959433
 11
-43.947052
 21
45.330393
 39
0.006944
 62
1
  0
LINE
  8
ADA_Sink_Front
 10
-43.947052
 20
44.959433
 11
-43.947052
 21
45.330393
 39
0.006944
 62
1
  0
LINE
  8
ADA_Sink_Front
 10
-44.067053
 20
44.854699
 11
-43.947052
 21
44.959433
 39
0.006944
 62
1
  0
LINE
  8
ADA_Sink_Front
 10
-43.947052
 20
44.959433
 11
-44.067053
 21
44.854699
 39
0.006944
 62
1
  0
LINE
  8
ADA_Sink_Front
 10
-44.067053
 20
44.854699
 11
-43.947052
 21
44.959433
 39
0.006944
 62
1
  0
LINE
  8
ADA_Sink_Front
 10
-73.884051
 20
45.489472
 11
-73.884051
 21
27.495473
 39
0.006944
 62
1
  0
LINE
  8
ADA_Sink_Front
 10
-73.884051
 20
45.489472
 11
-73.884051
 21
27.515473
 39
0.006944
 62
1
  0
LINE
  8
ADA_Sink_Front
 10
-73.821052
 20
44.959433
 11
-73.821052
 21
27.067344
 39
0.006944
 62
1
  0
LINE
  8
ADA_Sink_Front
 10
-73.701052
 20
27.172078
 11
-73.701052
 21
44.854699
 39
0.006944
 62
1
  0
LINE
  8
ADA_Sink_Front
 10
-73.701052
 20
27.172078
 11
-73.701052
 21
44.854699
 39
0.006944
 62
1
  0
LINE
  8
ADA_Sink_Front
 10
-73.701052
 20
44.854699
 11
-73.701052
 21
27.172078
 39
0.006944
 62
1
  0
LINE
  8
ADA_Sink_Front
 10
-73.821052
 20
27.438303
 11
-73.821052
 21
27.067344
 39
0.006944
 62
1
  0
LINE
  8
ADA_Sink_Front
 10
-73.884051
 20
27.495473
 11
-73.821052
 21
27.495473
 39
0.006944
 62
1
  0
LINE
  8
ADA_Sink_Front
 10
-73.884051
 20
27.495473
 11
-73.821052
 21
27.495473
 39
0.006944
 62
1
  0
LINE
  8
ADA_Sink_Front
 10
-73.884051
 20
27.515473
 11
-73.884051
 21
27.495473
 39
0.006944
 62
1
  0
LINE
  8
ADA_Sink_Front
 10
-73.821052
 20
27.067344
 11
-73.701052
 21
27.172078
 39
0.006944
 62
1
  0
LINE
  8
ADA_Sink_Front
 10
-73.701052
 20
27.172078
 11
-73.821052
 21
27.067344
 39
0.006944
 62
1
  0
LINE
  8
ADA_Sink_Front
 10
-73.821052
 20
27.067344
 11
-73.701052
 21
27.172078
 39
0.006944
 62
1
  0
LINE
  8
ADA_Sink_Front
 10
-44.067053
 20
27.172078
 11
-73.701052
 21
27.172078
 39
0.006944
 62
1
  0
LINE
  8
ADA_Sink_Front
 10
-73.821052
 20
27.067344
 11
-43.947052
 21
27.067344
 39
0.006944
 62
1
  0
LINE
  8
ADA_Sink_Front
 10
-73.701052
 20
27.172078
 11
-44.067053
 21
27.172078
 39
0.006944
 62
1
  0
LINE
  8
ADA_Sink_Front
 10
-73.701052
 20
27.172078
 11
-44.067053
 21
27.172078
 39
0.006944
 62
1
  0
LINE
  8
ADA_Sink_Front
 10
-43.884051
 20
27.495473
 11
-43.884051
 21
45.489472
 39
0.006944
 62
1
  0
LINE
  8
ADA_Sink_Front
 10
-44.067053
 20
44.854699
 11
-44.067053
 21
27.172078
 39
0.006944
 62
1
  0
LINE
  8
ADA_Sink_Front
 10
-44.067053
 20
44.854699
 11
-44.067053
 21
27.172078
 39
0.006944
 62
1
  0
LINE
  8
ADA_Sink_Front
 10
-44.067053
 20
27.172078
 11
-44.067053
 21
44.854699
 39
0.006944
 62
1
  0
LINE
  8
ADA_Sink_Front
 10
-43.947052
 20
27.067344
 11
-43.947052
 21
44.959433
 39
0.006944
 62
1
  0
LINE
  8
ADA_Sink_Front
 10
-43.947052
 20
27.495473
 11
-43.884051
 21
27.495473
 39
0.006944
 62
1
  0
LINE
  8
ADA_Sink_Front
 10
-43.947052
 20
27.495473
 11
-43.884051
 21
27.495473
 39
0.006944
 62
1
  0
LINE
  8
ADA_Sink_Front
 10
-44.067053
 20
27.172078
 11
-43.947052
 21
27.067344
 39
0.006944
 62
1
  0
LINE
  8
ADA_Sink_Front
 10
-43.947052
 20
27.067344
 11
-44.067053
 21
27.172078
 39
0.006944
 62
1
  0
LINE
  8
ADA_Sink_Front
 10
-44.067053
 20
27.172078
 11
-43.947052
 21
27.067344
 39
0.006944
 62
1
  0
LINE
  8
ADA_Sink_Front
 10
-79.884051
 20
27.495472
 11
-77.884051
 21
27.495472
 39
0.006944
 62
1
  0
LINE
  8
ADA_Sink_Front
 10
-79.884051
 20
50.995472
 11
-77.884051
 21
50.995472
 39
0.006944
 62
1
  0
LINE
  8
ADA_Sink_Front
 10
-78.884051
 20
27.495472
 11
-78.884051
 21
36.246833
 39
0.006944
 62
1
  0
LINE
  8
ADA_Sink_Front
 10
-78.884051
 20
42.244112
 11
-78.884051
 21
50.995472
 39
0.006944
 62
1
  0
TEXT
  8
ADA_Sink_Front
 10
-77.611942
 20
36.446833
 11
-77.611942
 21
36.446833
 40
2.000000
 41
0.45
 50
90.000000
 72
0
 73
1
 62
1
  1
23.500
  0
LINE
  8
ADA_Sink_Front
 10
-73.884051
 20
21.495472
 11
-73.884051
 21
23.495472
 39
0.006944
 62
1
  0
LINE
  8
ADA_Sink_Front
 10
-43.884051
 20
21.495472
 11
-43.884051
 21
23.495472
 39
0.006944
 62
1
  0
LINE
  8
ADA_Sink_Front
 10
-73.884051
 20
22.495472
 11
-43.884051
 21
22.495472
 39
0.006944
 62
1
  0
TEXT
  8
ADA_Sink_Front
 10
-64.792745
 20
23.406803
 11
-64.792745
 21
23.406803
 40
1.500000
 41
0.45
 50
0.000000
 72
0
 73
0
 62
1
  1
WIDTH
  0
POLYLINE
  8
Title
 66
     1
 10
0.0
 20
0.0
 39
0.003472
 62
1
 70
     1
  0
VERTEX
  8
Title
 10
15.876349
 20
48.764173
 62
1
  0
VERTEX
  8
Title
 10
15.876349
 20
27.223130
 62
1
  0
VERTEX
  8
Title
 10
46.541793
 20
27.223130
 62
1
  0
VERTEX
  8
Title
 10
46.541793
 20
48.764173
 62
1
  0
SEQEND
  8
Title
  0
TEXT
  8
Title
 10
31.209071
 20
47.164173
 11
31.209071
 21
47.164173
 40
1.600000
 41
0.45
 50
0.000000
 72
1
 73
1
 62
1
  1
TYPICAL SPECIFICATIONS:
  0
TEXT
  8
Title
 10
31.209071
 20
43.964173
 11
31.209071
 21
43.964173
 40
1.600000
 41
0.45
 50
0.000000
 72
1
 73
1
 62
1
  1
MIN WIDTH - 30"
  0
TEXT
  8
Title
 10
31.209071
 20
42.364173
 11
31.209071
 21
42.364173
 40
1.600000
 41
0.45
 50
0.000000
 72
1
 73
1
 62
1
  1
MAX WIDTH - 48"
  0
TEXT
  8
Title
 10
31.209071
 20
39.164173
 11
31.209071
 21
39.164173
 40
1.600000
 41
0.45
 50
0.000000
 72
1
 73
1
 62
1
  1
MIN HEIGHT - 23.5"
  0
TEXT
  8
Title
 10
31.209071
 20
37.564173
 11
31.209071
 21
37.564173
 40
1.600000
 41
0.45
 50
0.000000
 72
1
 73
1
 62
1
  1
MAX HEIGHT - 23.5"
  0
TEXT
  8
Title
 10
31.209071
 20
34.364173
 11
31.209071
 21
34.364173
 40
1.600000
 41
0.45
 50
0.000000
 72
1
 73
1
 62
1
  1
MIN DEPTH - 21"
  0
TEXT
  8
Title
 10
31.209071
 20
32.764173
 11
31.209071
 21
32.764173
 40
1.600000
 41
0.45
 50
0.000000
 72
1
 73
1
 62
1
  1
MAX DEPTH - 24"
  0
POLYLINE
  8
Title
 66
     1
 10
0.0
 20
0.0
 39
0.003472
 62
1
 70
     1
  0
VERTEX
  8
Title
 10
16.113379
 20
15.943765
 62
1
  0
VERTEX
  8
Title
 10
16.113379
 20
4.070748
 62
1
  0
VERTEX
  8
Title
 10
65.980047
 20
4.070748
 62
1
  0
VERTEX
  8
Title
 10
65.980047
 20
15.943765
 62
1
  0
SEQEND
  8
Title
  0
TEXT
  8
Title
 10
41.046713
 20
14.023765
 11
41.046713
 21
14.023765
 40
1.920000
 41
0.45
 50
0.000000
 72
1
 73
1
 62
1
  1
** NOTE**
  0
TEXT
  8
Title
 10
41.046713
 20
12.103765
 11
41.046713
 21
12.103765
 40
1.920000
 41
0.45
 50
0.000000
 72
1
 73
1
 62
1
  1
CERTAIN ALTERATIONS MADE TO CABINET SUCH AS
  0
TEXT
  8
Title
 10
41.046713
 20
10.183765
 11
41.046713
 21
10.183765
 40
1.920000
 41
0.45
 50
0.000000
 72
1
 73
1
 62
1
  1
RESIZING DRAWER FRONT TO MATCH ADJACENT
  0
TEXT
  8
Title
 10
41.046713
 20
8.263765
 11
41.046713
 21
8.263765
 40
1.920000
 41
0.45
 50
0.000000
 72
1
 73
1
 62
1
  1
CABINETS WILL RESULT IN A NON ADA COMPLIANT SINK. 
  0
ENDSEC
  0
EOF
